  0
SECTION
  2
HEADER
  9
$ACADVER
  1
AC1015
  9
$ACADMAINTVER
 70
     6
  9
$DWGCODEPAGE
  3
ANSI_1250
  9
$INSBASE
 10
0.0
 20
0.0
 30
0.0
  9
$EXTMIN
 10
-360.0000000009
 20
-728.5
 30
0.0
  9
$EXTMAX
 10
360.0000000009
 20
728.5
 30
0.0
  9
$LIMMIN
 10
0.0
 20
0.0
  9
$LIMMAX
 10
420.0
 20
297.0
  9
$ORTHOMODE
 70
     0
  9
$REGENMODE
 70
     1
  9
$FILLMODE
 70
     1
  9
$QTEXTMODE
 70
     0
  9
$MIRRTEXT
 70
     1
  9
$LTSCALE
 40
1.0
  9
$ATTMODE
 70
     1
  9
$TEXTSIZE
 40
3.5
  9
$TRACEWID
 40
1.0
  9
$TEXTSTYLE
  7
Standard
  9
$CLAYER
  8
0
  9
$CELTYPE
  6
ByLayer
  9
$CECOLOR
 62
   256
  9
$CELTSCALE
 40
1.0
  9
$DISPSILH
 70
     0
  9
$DIMSCALE
 40
1.0
  9
$DIMASZ
 40
3.556
  9
$DIMEXO
 40
1.0
  9
$DIMDLI
 40
3.75
  9
$DIMRND
 40
0.0
  9
$DIMDLE
 40
0.0
  9
$DIMEXE
 40
1.0
  9
$DIMTP
 40
0.0
  9
$DIMTM
 40
0.0
  9
$DIMTXT
 40
3.5
  9
$DIMCEN
 40
2.5
  9
$DIMTSZ
 40
0.0
  9
$DIMTOL
 70
     0
  9
$DIMLIM
 70
     0
  9
$DIMTIH
 70
     1
  9
$DIMTOH
 70
     1
  9
$DIMSE1
 70
     0
  9
$DIMSE2
 70
     0
  9
$DIMTAD
 70
     1
  9
$DIMZIN
 70
     1
  9
$DIMBLK
  1

  9
$DIMASO
 70
     1
  9
$DIMSHO
 70
     1
  9
$DIMPOST
  1

  9
$DIMAPOST
  1

  9
$DIMALT
 70
     0
  9
$DIMALTD
 70
     3
  9
$DIMALTF
 40
0.0393700787
  9
$DIMLFAC
 40
1.0
  9
$DIMTOFL
 70
     1
  9
$DIMTVP
 40
0.0
  9
$DIMTIX
 70
     0
  9
$DIMSOXD
 70
     0
  9
$DIMSAH
 70
     0
  9
$DIMBLK1
  1

  9
$DIMBLK2
  1

  9
$DIMSTYLE
  2
ISO-25
  9
$DIMCLRD
 70
     0
  9
$DIMCLRE
 70
     0
  9
$DIMCLRT
 70
     0
  9
$DIMTFAC
 40
1.0
  9
$DIMGAP
 40
1.524
  9
$DIMJUST
 70
     0
  9
$DIMSD1
 70
     0
  9
$DIMSD2
 70
     0
  9
$DIMTOLJ
 70
     0
  9
$DIMTZIN
 70
     1
  9
$DIMALTZ
 70
     0
  9
$DIMALTTZ
 70
     0
  9
$DIMUPT
 70
     0
  9
$DIMDEC
 70
     2
  9
$DIMTDEC
 70
     2
  9
$DIMALTU
 70
     2
  9
$DIMALTTD
 70
     3
  9
$DIMTXSTY
  7
Standard
  9
$DIMAUNIT
 70
     0
  9
$DIMADEC
 70
     2
  9
$DIMALTRND
 40
0.0
  9
$DIMAZIN
 70
     0
  9
$DIMDSEP
 70
    44
  9
$DIMATFIT
 70
     3
  9
$DIMFRAC
 70
     0
  9
$DIMLDRBLK
  1

  9
$DIMLUNIT
 70
     2
  9
$DIMLWD
 70
    -2
  9
$DIMLWE
 70
    -2
  9
$DIMTMOVE
 70
     0
  9
$LUNITS
 70
     2
  9
$LUPREC
 70
     2
  9
$SKETCHINC
 40
1.0
  9
$FILLETRAD
 40
10.0
  9
$AUNITS
 70
     0
  9
$AUPREC
 70
     2
  9
$MENU
  1
.
  9
$ELEVATION
 40
0.0
  9
$PELEVATION
 40
0.0
  9
$THICKNESS
 40
0.0
  9
$LIMCHECK
 70
     0
  9
$CHAMFERA
 40
0.0
  9
$CHAMFERB
 40
0.0
  9
$CHAMFERC
 40
0.0
  9
$CHAMFERD
 40
0.0
  9
$SKPOLY
 70
     0
  9
$TDCREATE
 40
2458877.463278391
  9
$TDUCREATE
 40
2458877.421611724
  9
$TDUPDATE
 40
2458877.463395116
  9
$TDUUPDATE
 40
2458877.421728449
  9
$TDINDWG
 40
0.0000000116
  9
$TDUSRTIMER
 40
0.0000000116
  9
$USRTIMER
 70
     1
  9
$ANGBASE
 50
0.0
  9
$ANGDIR
 70
     0
  9
$PDMODE
 70
     0
  9
$PDSIZE
 40
-1.0
  9
$PLINEWID
 40
0.0
  9
$SPLFRAME
 70
     0
  9
$SPLINETYPE
 70
     6
  9
$SPLINESEGS
 70
     8
  9
$HANDSEED
  5
583
  9
$SURFTAB1
 70
     6
  9
$SURFTAB2
 70
     6
  9
$SURFTYPE
 70
     6
  9
$SURFU
 70
     6
  9
$SURFV
 70
     6
  9
$UCSBASE
  2

  9
$UCSNAME
  2

  9
$UCSORG
 10
0.0
 20
0.0
 30
0.0
  9
$UCSXDIR
 10
1.0
 20
0.0
 30
0.0
  9
$UCSYDIR
 10
0.0
 20
1.0
 30
0.0
  9
$UCSORTHOREF
  2

  9
$UCSORTHOVIEW
 70
     0
  9
$UCSORGTOP
 10
0.0
 20
0.0
 30
0.0
  9
$UCSORGBOTTOM
 10
0.0
 20
0.0
 30
0.0
  9
$UCSORGLEFT
 10
0.0
 20
0.0
 30
0.0
  9
$UCSORGRIGHT
 10
0.0
 20
0.0
 30
0.0
  9
$UCSORGFRONT
 10
0.0
 20
0.0
 30
0.0
  9
$UCSORGBACK
 10
0.0
 20
0.0
 30
0.0
  9
$PUCSBASE
  2

  9
$PUCSNAME
  2

  9
$PUCSORG
 10
0.0
 20
0.0
 30
0.0
  9
$PUCSXDIR
 10
1.0
 20
0.0
 30
0.0
  9
$PUCSYDIR
 10
0.0
 20
1.0
 30
0.0
  9
$PUCSORTHOREF
  2

  9
$PUCSORTHOVIEW
 70
     0
  9
$PUCSORGTOP
 10
0.0
 20
0.0
 30
0.0
  9
$PUCSORGBOTTOM
 10
0.0
 20
0.0
 30
0.0
  9
$PUCSORGLEFT
 10
0.0
 20
0.0
 30
0.0
  9
$PUCSORGRIGHT
 10
0.0
 20
0.0
 30
0.0
  9
$PUCSORGFRONT
 10
0.0
 20
0.0
 30
0.0
  9
$PUCSORGBACK
 10
0.0
 20
0.0
 30
0.0
  9
$USERI1
 70
     0
  9
$USERI2
 70
     0
  9
$USERI3
 70
     0
  9
$USERI4
 70
     0
  9
$USERI5
 70
     0
  9
$USERR1
 40
0.0
  9
$USERR2
 40
0.0
  9
$USERR3
 40
0.0
  9
$USERR4
 40
0.0
  9
$USERR5
 40
0.0
  9
$WORLDVIEW
 70
     1
  9
$SHADEDGE
 70
     3
  9
$SHADEDIF
 70
    70
  9
$TILEMODE
 70
     1
  9
$MAXACTVP
 70
    64
  9
$PINSBASE
 10
0.0
 20
0.0
 30
0.0
  9
$PLIMCHECK
 70
     0
  9
$PEXTMIN
 10
1.0000000000E+20
 20
1.0000000000E+20
 30
1.0000000000E+20
  9
$PEXTMAX
 10
-1.0000000000E+20
 20
-1.0000000000E+20
 30
-1.0000000000E+20
  9
$PLIMMIN
 10
0.0
 20
0.0
  9
$PLIMMAX
 10
420.0
 20
297.0
  9
$UNITMODE
 70
     0
  9
$VISRETAIN
 70
     1
  9
$PLINEGEN
 70
     0
  9
$PSLTSCALE
 70
     1
  9
$TREEDEPTH
 70
  3020
  9
$CMLSTYLE
  2
Standard
  9
$CMLJUST
 70
     0
  9
$CMLSCALE
 40
20.0
  9
$PROXYGRAPHICS
 70
     1
  9
$MEASUREMENT
 70
     1
  9
$CELWEIGHT
370
    -1
  9
$ENDCAPS
280
     0
  9
$JOINSTYLE
280
     0
  9
$LWDISPLAY
290
     1
  9
$INSUNITS
 70
     4
  9
$HYPERLINKBASE
  1

  9
$STYLESHEET
  1

  9
$XEDIT
290
     1
  9
$CEPSNTYPE
380
     0
  9
$PSTYLEMODE
290
     1
  9
$FINGERPRINTGUID
  2
{1102370C-7EBA-498A-9E7F-293FEC32C45D}
  9
$VERSIONGUID
  2
{FAEB1C32-E019-11D5-929B-00C0DF256EC4}
  9
$EXTNAMES
290
     1
  9
$PSVPSCALE
 40
0.0
  9
$OLESTARTUP
290
     0
  0
ENDSEC
  0
SECTION
  2
CLASSES
  0
CLASS
  1
ACDBDICTIONARYWDFLT
  2
AcDbDictionaryWithDefault
  3
ObjectDBX Classes
 90
        0
280
     0
281
     0
  0
CLASS
  1
VISUALSTYLE
  2
AcDbVisualStyle
  3
ObjectDBX Classes
 90
     4095
280
     0
281
     0
  0
CLASS
  1
MATERIAL
  2
AcDbMaterial
  3
ObjectDBX Classes
 90
     1153
280
     0
281
     0
  0
CLASS
  1
SCALE
  2
AcDbScale
  3
ObjectDBX Classes
 90
     1153
280
     0
281
     0
  0
CLASS
  1
TABLESTYLE
  2
AcDbTableStyle
  3
ObjectDBX Classes
 90
     4095
280
     0
281
     0
  0
CLASS
  1
MLEADERSTYLE
  2
AcDbMLeaderStyle
  3
ACDB_MLEADERSTYLE_CLASS
 90
     4095
280
     0
281
     0
  0
CLASS
  1
SUN
  2
AcDbSun
  3
SCENEOE
 90
     1153
280
     0
281
     0
  0
CLASS
  1
ACDBPLACEHOLDER
  2
AcDbPlaceHolder
  3
ObjectDBX Classes
 90
        0
280
     0
281
     0
  0
CLASS
  1
LAYOUT
  2
AcDbLayout
  3
ObjectDBX Classes
 90
        0
280
     0
281
     0
  0
ENDSEC
  0
SECTION
  2
TABLES
  0
TABLE
  2
VPORT
  5
8
330
0
100
AcDbSymbolTable
 70
     1
  0
VPORT
  5
29
330
8
100
AcDbSymbolTableRecord
100
AcDbViewportTableRecord
  2
*Active
 70
     0
 10
0.0
 20
0.0
 11
1.0
 21
1.0
 12
0.0
 22
0.0
 13
0.0
 23
0.0
 14
10.0
 24
10.0
 15
10.0
 25
10.0
 16
0.0
 26
0.0
 36
1.0
 17
0.0
 27
0.0
 37
0.0
 40
1486.14
 41
0.4941660947
 42
50.0
 43
0.0
 44
0.0
 50
0.0
 51
0.0
 71
     0
 72
   100
 73
     1
 74
     3
 75
     0
 76
     0
 77
     0
 78
     0
281
     0
 65
     1
110
0.0
120
0.0
130
0.0
111
1.0
121
0.0
131
0.0
112
0.0
122
1.0
132
0.0
 79
     0
146
0.0
  0
ENDTAB
  0
TABLE
  2
LTYPE
  5
5
330
0
100
AcDbSymbolTable
 70
     6
  0
LTYPE
  5
14
330
5
100
AcDbSymbolTableRecord
100
AcDbLinetypeTableRecord
  2
ByBlock
 70
     0
  3

 72
    65
 73
     0
 40
0.0
  0
LTYPE
  5
15
330
5
100
AcDbSymbolTableRecord
100
AcDbLinetypeTableRecord
  2
ByLayer
 70
     0
  3

 72
    65
 73
     0
 40
0.0
  0
LTYPE
  5
16
330
5
100
AcDbSymbolTableRecord
100
AcDbLinetypeTableRecord
  2
Continuous
 70
     0
  3
Solid line
 72
    65
 73
     0
 40
0.0
  0
LTYPE
  5
6E
330
5
100
AcDbSymbolTableRecord
100
AcDbLinetypeTableRecord
  2
HIDDEN
 70
     0
  3
Hidden __ __ __ __ __ __ __ __ __ __ __ __ __ __
 72
    65
 73
     2
 40
1.905
 49
1.27
 74
     0
 49
-0.635
 74
     0
  0
LTYPE
  5
6F
330
5
100
AcDbSymbolTableRecord
100
AcDbLinetypeTableRecord
  2
PHANTOM
 70
     0
  3
Phantom ______  __  __  ______  __  __  ______
 72
    65
 73
     6
 40
12.7
 49
6.35
 74
     0
 49
-1.27
 74
     0
 49
1.27
 74
     0
 49
-1.27
 74
     0
 49
1.27
 74
     0
 49
-1.27
 74
     0
  0
LTYPE
  5
70
330
5
100
AcDbSymbolTableRecord
100
AcDbLinetypeTableRecord
  2
CENTER
 70
     0
  3
Center ____ _ ____ _ ____ _ ____ _ ____ _ ____
 72
    65
 73
     4
 40
10.16
 49
6.35
 74
     0
 49
-1.27
 74
     0
 49
1.27
 74
     0
 49
-1.27
 74
     0
  0
LTYPE
  5
71
330
5
100
AcDbSymbolTableRecord
100
AcDbLinetypeTableRecord
  2
CENTERX2
 70
     0
  3
Center (2x) ________  __  ________  __  _____
 72
    65
 73
     4
 40
20.32
 49
12.7
 74
     0
 49
-2.54
 74
     0
 49
2.54
 74
     0
 49
-2.54
 74
     0
  0
LTYPE
  5
72
330
5
100
AcDbSymbolTableRecord
100
AcDbLinetypeTableRecord
  2
DOT2
 70
     0
  3
Dot (.5x) ........................................
 72
    65
 73
     2
 40
0.635
 49
0.0
 74
     0
 49
-0.635
 74
     0
  0
ENDTAB
  0
TABLE
  2
LAYER
  5
2
330
0
100
AcDbSymbolTable
 70
     1
  0
LAYER
  5
10
330
2
100
AcDbSymbolTableRecord
100
AcDbLayerTableRecord
  2
0
 70
     0
 62
     7
  6
Continuous
370
    -3
390
F
  0
ENDTAB
  0
TABLE
  2
STYLE
  5
3
330
0
100
AcDbSymbolTable
 70
     1
  0
STYLE
  5
11
330
3
100
AcDbSymbolTableRecord
100
AcDbTextStyleTableRecord
  2
Standard
 70
     0
 40
0.0
 41
1.0
 50
0.0
 71
     0
 42
3.5
  3
txt
  4

  0
ENDTAB
  0
TABLE
  2
VIEW
  5
6
330
0
100
AcDbSymbolTable
 70
     0
  0
ENDTAB
  0
TABLE
  2
UCS
  5
7
330
0
100
AcDbSymbolTable
 70
     0
  0
ENDTAB
  0
TABLE
  2
APPID
  5
9
330
0
100
AcDbSymbolTable
 70
     1
  0
APPID
  5
12
330
9
100
AcDbSymbolTableRecord
100
AcDbRegAppTableRecord
  2
ACAD
 70
     0
  0
ENDTAB
  0
TABLE
  2
DIMSTYLE
  5
A
330
0
100
AcDbSymbolTable
 70
     1
100
AcDbDimStyleTable
  0
DIMSTYLE
105
27
330
A
100
AcDbSymbolTableRecord
100
AcDbDimStyleTableRecord
  2
ISO-25
 70
     0
 41
2.5
 42
0.625
 43
3.75
 44
1.25
 73
     0
 74
     0
 77
     1
 78
     8
140
2.5
141
2.5
143
0.0393700787
147
0.625
171
     3
172
     1
178
     0
271
     2
272
     2
274
     3
278
    44
283
     0
284
     8
340
11
  0
ENDTAB
  0
TABLE
  2
BLOCK_RECORD
  5
1
330
0
100
AcDbSymbolTable
 70
     1
  0
BLOCK_RECORD
  5
1F
330
1
100
AcDbSymbolTableRecord
100
AcDbBlockTableRecord
  2
*Model_Space
340
22
  0
BLOCK_RECORD
  5
1B
330
1
100
AcDbSymbolTableRecord
100
AcDbBlockTableRecord
  2
*Paper_Space
340
1E
  0
BLOCK_RECORD
  5
23
330
1
100
AcDbSymbolTableRecord
100
AcDbBlockTableRecord
  2
*Paper_Space0
340
26
  0
ENDTAB
  0
ENDSEC
  0
SECTION
  2
BLOCKS
  0
BLOCK
  5
20
330
1F
100
AcDbEntity
  8
0
100
AcDbBlockBegin
  2
*Model_Space
 70
     0
 10
0.0
 20
0.0
 30
0.0
  3
*Model_Space
  1

  0
ENDBLK
  5
21
330
1F
100
AcDbEntity
  8
0
100
AcDbBlockEnd
  0
BLOCK
  5
1C
330
1B
100
AcDbEntity
 67
     1
  8
0
100
AcDbBlockBegin
  2
*Paper_Space
 70
     0
 10
0.0
 20
0.0
 30
0.0
  3
*Paper_Space
  1

  0
ENDBLK
  5
1D
330
1B
100
AcDbEntity
 67
     1
  8
0
100
AcDbBlockEnd
  0
BLOCK
  5
24
330
23
100
AcDbEntity
  8
0
100
AcDbBlockBegin
  2
*Paper_Space0
 70
     0
 10
0.0
 20
0.0
 30
0.0
  3
*Paper_Space0
  1

  0
ENDBLK
  5
25
330
23
100
AcDbEntity
  8
0
100
AcDbBlockEnd
  0
ENDSEC
  0
SECTION
  2
ENTITIES
  0
SPLINE
  5
73
330
1F
100
AcDbEntity
  8
0
  6
Continuous
 62
     7
370
    25
100
AcDbSpline
210
0.0
220
0.0
230
1.0
 70
     8
 71
     3
 72
    11
 73
     7
 74
     0
 42
0.000000001
 43
0.00000001
 40
0.4163895588429692
 40
0.4163895588429692
 40
0.4163895588429692
 40
0.4163895588429692
 40
0.4726723221207811
 40
0.6391012402042788
 40
0.7368433174212916
 40
0.9965767111578903
 40
0.9965767111578903
 40
0.9965767111578903
 40
0.9965767111578903
 10
-359.9999999993914
 20
-63.73478527899574
 30
0.0
 10
-359.220981814382
 20
-83.58570109478505
 30
0.0
 10
-306.5337961805653
 20
-163.7860080541032
 30
0.0
 10
-298.734591937432
 20
-288.9573331943534
 30
0.0
 10
-310.2136526848033
 20
-491.5240145757697
 30
0.0
 10
-310.3410891621911
 20
-632.4641275204883
 30
0.0
 10
-358.0871661588131
 20
-724.8522178151771
 30
0.0
  0
SPLINE
  5
76
330
1F
100
AcDbEntity
  8
0
  6
Continuous
 62
     7
370
    25
100
AcDbSpline
210
0.0
220
0.0
230
1.0
 70
     8
 71
     3
 72
     8
 73
     4
 74
     0
 42
0.000000001
 43
0.00000001
 40
0.0
 40
0.0
 40
0.0
 40
0.0
 40
0.0166703415374655
 40
0.0166703415374655
 40
0.0166703415374655
 40
0.0166703415374655
 10
-356.4680694408
 20
408.2089663896014
 30
0.0
 10
-358.8987388084773
 20
401.710808085393
 30
0.0
 10
-359.9650977280479
 20
395.3658333771415
 30
0.0
 10
-360.000000000948
 20
389.1241543915606
 30
0.0
  0
SPLINE
  5
77
330
1F
100
AcDbEntity
  8
0
  6
Continuous
 62
     7
370
    25
100
AcDbSpline
210
0.0
220
0.0
230
1.0
 70
     8
 71
     3
 72
     8
 73
     4
 74
     0
 42
0.000000001
 43
0.00000001
 40
0.0
 40
0.0
 40
0.0
 40
0.0
 40
1.0
 40
1.0
 40
1.0
 40
1.0
 10
-356.4680694408
 20
408.2089663896014
 30
0.0
 10
-118.8226898131943
 20
835.2636778701332
 30
0.0
 10
118.8226898144115
 20
835.2636778701332
 30
0.0
 10
356.4680694420173
 20
408.2089663896012
 30
0.0
  0
SPLINE
  5
7A
330
1F
100
AcDbEntity
  8
0
  6
Continuous
 62
     7
370
    25
100
AcDbSpline
210
0.0
220
0.0
230
1.0
 70
     8
 71
     3
 72
    11
 73
     7
 74
     0
 42
0.000000001
 43
0.00000001
 40
0.4163895588429692
 40
0.4163895588429692
 40
0.4163895588429692
 40
0.4163895588429692
 40
0.4726723221207811
 40
0.6391012402042788
 40
0.7368433174212916
 40
0.9965767111578903
 40
0.9965767111578903
 40
0.9965767111578903
 40
0.9965767111578903
 10
360.0000000006085
 20
-63.73478527899582
 30
0.0
 10
359.220981815599
 20
-83.58570109478512
 30
0.0
 10
306.5337961817823
 20
-163.7860080541032
 30
0.0
 10
298.7345919386491
 20
-288.9573331943534
 30
0.0
 10
310.2136526860205
 20
-491.5240145757696
 30
0.0
 10
310.3410891634082
 20
-632.4641275204883
 30
0.0
 10
358.0871661600303
 20
-724.8522178151771
 30
0.0
  0
CIRCLE
  5
7C
330
1F
100
AcDbEntity
  8
0
  6
Continuous
 62
     7
370
    25
100
AcDbCircle
 10
-329.9999999994
 20
388.8063628672
 30
0.0
 40
2.750000000000057
  0
CIRCLE
  5
7D
330
1F
100
AcDbEntity
  8
0
  6
Continuous
 62
     7
370
    25
100
AcDbCircle
 10
-329.9999999994
 20
-61.8497570351
 30
0.0
 40
2.750000000000057
  0
CIRCLE
  5
7E
330
1F
100
AcDbEntity
  8
0
  6
Continuous
 62
     7
370
    25
100
AcDbCircle
 10
-329.9999999994
 20
-713.5
 30
0.0
 40
2.750000000000057
  0
CIRCLE
  5
7F
330
1F
100
AcDbEntity
  8
0
  6
Continuous
 62
     7
370
    25
100
AcDbCircle
 10
330.0000000006
 20
-713.5
 30
0.0
 40
2.749999999999886
  0
CIRCLE
  5
80
330
1F
100
AcDbEntity
  8
0
  6
Continuous
 62
     7
370
    25
100
AcDbCircle
 10
330.0000000006
 20
-61.8497570351
 30
0.0
 40
2.750000000000057
  0
CIRCLE
  5
81
330
1F
100
AcDbEntity
  8
0
  6
Continuous
 62
     7
370
    25
100
AcDbCircle
 10
330.0000000006
 20
388.8063628672
 30
0.0
 40
2.750000000000057
  0
SPLINE
  5
82
330
1F
100
AcDbEntity
  8
0
  6
Continuous
 62
     7
370
    25
100
AcDbSpline
210
0.0
220
0.0
230
1.0
 70
    11
 71
     3
 72
    21
 73
    17
 74
     0
 42
0.000000001
 43
0.00000001
 40
0.0
 40
0.0
 40
0.0
 40
0.0
 40
0.0619669068406422
 40
0.1002050272601335
 40
0.1583990224813097
 40
0.2213657465921793
 40
0.2884238472726411
 40
0.3458114202057003
 40
0.4445311183658104
 40
0.5205958472448465
 40
0.6054064195754503
 40
0.6668234578474451
 40
0.7502812546657844
 40
0.8292578160500566
 40
0.9052558287852358
 40
1.0
 40
1.0
 40
1.0
 40
1.0
 10
186.4497709287621
 20
105.5814072992621
 30
0.0
 10
172.9358617103738
 20
124.3600464882482
 30
0.0
 10
171.4828824737259
 20
171.3508009147352
 30
0.0
 10
134.4302770871156
 20
116.2630922616791
 30
0.0
 10
65.7756749403627
 20
173.6007512797088
 30
0.0
 10
130.7324456937557
 20
70.53872852183343
 30
0.0
 10
12.22578904564128
 20
106.1010463959717
 30
0.0
 10
106.1265544883537
 20
36.28758270582294
 30
0.0
 10
-19.79647280360724
 20
-40.7694857846009
 30
0.0
 10
103.9178688530325
 20
2.717442716186971
 30
0.0
 10
134.9709738059388
 20
-124.2836430057371
 30
0.0
 10
123.2006009112633
 20
2.789431826826013
 30
0.0
 10
241.0302040343862
 20
-71.81707433391009
 30
0.0
 10
171.2614558488777
 20
38.4876388741523
 30
0.0
 10
297.4941911190595
 20
68.43758741284455
 30
0.0
 10
207.1118338595522
 20
76.86984660966701
 30
0.0
 10
186.4497709287621
 20
105.5814072992621
 30
0.0
  0
SPLINE
  5
83
330
1F
100
AcDbEntity
  8
0
  6
Continuous
 62
     7
370
    25
100
AcDbSpline
210
0.0
220
0.0
230
1.0
 70
    11
 71
     3
 72
    21
 73
    17
 74
     0
 42
0.000000001
 43
0.00000001
 40
0.0
 40
0.0
 40
0.0
 40
0.0
 40
0.0619669068406422
 40
0.1002050272601335
 40
0.1583990224813097
 40
0.2213657465921793
 40
0.2884238472726411
 40
0.3458114202057003
 40
0.4445311183658104
 40
0.5205958472448465
 40
0.6054064195754503
 40
0.6668234578474451
 40
0.7502812546657844
 40
0.8292578160500566
 40
0.9052558287852358
 40
1.0
 40
1.0
 40
1.0
 40
1.0
 10
-96.02823216473514
 20
-244.1039931723786
 30
0.0
 10
-79.88154840933234
 20
-227.5345141263743
 30
0.0
 10
-33.85699632686709
 20
-217.9437500358036
 30
0.0
 10
-94.54191630727146
 20
-191.0199372012184
 30
0.0
 10
-49.99709171797788
 20
-113.4517727269585
 30
0.0
 10
-140.2137459025982
 20
-195.3182366141101
 30
0.0
 10
-125.770164513409
 20
-72.43663067103498
 30
0.0
 10
-178.217308019446
 20
-177.0338132392102
 30
0.0
 10
-275.9700107087612
 20
-66.40465919903798
 30
0.0
 10
-211.6609763865573
 20
-180.6880761348035
 30
0.0
 10
-331.3403151605036
 20
-233.3229217448622
 30
0.0
 10
-208.2416696699158
 20
-199.6653593871319
 30
0.0
 10
-261.2538395046128
 20
-328.6601499140438
 30
0.0
 10
-164.740118724042
 20
-240.7971333463443
 30
0.0
 10
-113.3250927592411
 20
-359.9113557393941
 30
0.0
 10
-120.7156701581575
 20
-269.4378631315688
 30
0.0
 10
-96.02823216473514
 20
-244.1039931723786
 30
0.0
  0
SPLINE
  5
84
330
1F
100
AcDbEntity
  8
0
  6
Continuous
 62
     7
370
    25
100
AcDbSpline
210
0.0
220
0.0
230
1.0
 70
    11
 71
     3
 72
    21
 73
    17
 74
     0
 42
0.000000001
 43
0.00000001
 40
0.0
 40
0.0
 40
0.0
 40
0.0
 40
0.0619669068406422
 40
0.1002050272601335
 40
0.1583990224813097
 40
0.2213657465921793
 40
0.2884238472726411
 40
0.3458114202057003
 40
0.4445311183658104
 40
0.5205958472448465
 40
0.6054064195754503
 40
0.6668234578474451
 40
0.7502812546657844
 40
0.8292578160500566
 40
0.9052558287852358
 40
1.0
 40
1.0
 40
1.0
 40
1.0
 10
81.33162328955736
 20
-372.1645976281242
 30
0.0
 10
88.76469619469779
 20
-394.0737842707139
 30
0.0
 10
76.41542017114037
 20
-439.4360762314
 30
0.0
 10
127.9550902113407
 20
-397.5885718526784
 30
0.0
 10
176.8459036511184
 20
-472.4935109341143
 30
0.0
 10
144.8598541335413
 20
-354.943286613134
 30
0.0
 10
247.7909179986581
 20
-423.5996935544426
 30
0.0
 10
178.4046508089101
 20
-329.3828193300452
 30
0.0
 10
321.3547471689573
 20
-292.5091084052814
 30
0.0
 10
190.3317864429457
 20
-297.9252919840069
 30
0.0
 10
197.7670784232191
 20
-167.3945004636464
 30
0.0
 10
171.8705704886997
 20
-292.3564102693119
 30
0.0
 10
81.00239201844178
 20
-186.5598116701038
 30
0.0
 10
115.4726006862375
 20
-312.4431413594809
 30
0.0
 10
-14.00088192147578
 20
-304.1775395851239
 30
0.0
 10
69.96684218490232
 20
-338.6665930273796
 30
0.0
 10
81.33162328955736
 20
-372.1645976281242
 30
0.0
  0
SPLINE
  5
85
330
1F
100
AcDbEntity
  8
0
  6
Continuous
 62
     7
370
    25
100
AcDbSpline
210
0.0
220
0.0
230
1.0
 70
    11
 71
     3
 72
    21
 73
    17
 74
     0
 42
0.000000001
 43
0.00000001
 40
0.0
 40
0.0
 40
0.0
 40
0.0
 40
0.0619669068406422
 40
0.1002050272601335
 40
0.1583990224813097
 40
0.2213657465921793
 40
0.2884238472726411
 40
0.3458114202057003
 40
0.4445311183658104
 40
0.5205958472448465
 40
0.6054064195754503
 40
0.6668234578474451
 40
0.7502812546657844
 40
0.8292578160500566
 40
0.9052558287852358
 40
1.0
 40
1.0
 40
1.0
 40
1.0
 10
-204.1551777796255
 20
238.3919051267717
 30
0.0
 10
-220.3018615350285
 20
221.8224260807675
 30
0.0
 10
-266.3264136174938
 20
212.231661990197
 30
0.0
 10
-205.6414936370896
 20
185.3078491556114
 30
0.0
 10
-250.1863182263838
 20
107.7396846813518
 30
0.0
 10
-159.9696640417628
 20
189.6061485685028
 30
0.0
 10
-174.4132454309529
 20
66.72454262542776
 30
0.0
 10
-121.9661019249152
 20
171.3217251936027
 30
0.0
 10
-24.21339923560068
 20
60.69257115342974
 30
0.0
 10
-88.52243355780386
 20
174.9759880891957
 30
0.0
 10
31.15690521614278
 20
227.6108336992536
 30
0.0
 10
-91.94174027444518
 20
193.9532713415241
 30
0.0
 10
-38.92957043974739
 20
322.9480618684356
 30
0.0
 10
-135.4432912203187
 20
235.0850453007368
 30
0.0
 10
-186.8583171851188
 20
354.1992676937871
 30
0.0
 10
-179.467739786203
 20
263.7257750859617
 30
0.0
 10
-204.1551777796255
 20
238.3919051267717
 30
0.0
  0
SPLINE
  5
86
330
1F
100
AcDbEntity
  8
0
  6
Continuous
 62
     7
370
    25
100
AcDbSpline
210
0.0
220
0.0
230
1.0
 70
    11
 71
     3
 72
    21
 73
    17
 74
     0
 42
0.000000001
 43
0.00000001
 40
0.0
 40
0.0
 40
0.0
 40
0.0
 40
0.0619669068406422
 40
0.1002050272601335
 40
0.1583990224813097
 40
0.2213657465921793
 40
0.2884238472726411
 40
0.3458114202057003
 40
0.4445311183658104
 40
0.5205958472448465
 40
0.6054064195754503
 40
0.6668234578474451
 40
0.7502812546657844
 40
0.8292578160500566
 40
0.9052558287852358
 40
1.0
 40
1.0
 40
1.0
 40
1.0
 10
-205.8662213021805
 20
-541.1206312514203
 30
0.0
 10
-222.0129050575834
 20
-557.6901102974246
 30
0.0
 10
-268.0374571400487
 20
-567.2808743879949
 30
0.0
 10
-207.3525371596445
 20
-594.2046872225806
 30
0.0
 10
-251.8973617489387
 20
-671.7728516968402
 30
0.0
 10
-161.6807075643177
 20
-589.9063878096891
 30
0.0
 10
-176.1242889535079
 20
-712.7879937527641
 30
0.0
 10
-123.6771454474702
 20
-608.1908111845893
 30
0.0
 10
-25.92444275815561
 20
-718.8199652247622
 30
0.0
 10
-90.23347708035881
 20
-604.5365482889963
 30
0.0
 10
29.44586169358784
 20
-551.9017026789384
 30
0.0
 10
-93.65278379700013
 20
-585.5592650366679
 30
0.0
 10
-40.64061396230233
 20
-456.5644745097563
 30
0.0
 10
-137.1543347428736
 20
-544.4274910774551
 30
0.0
 10
-188.5693607076737
 20
-425.3132686844049
 30
0.0
 10
-181.1787833087579
 20
-515.7867612922303
 30
0.0
 10
-205.8662213021805
 20
-541.1206312514203
 30
0.0
  0
SPLINE
  5
2FF
330
1F
100
AcDbEntity
  8
0
  6
Continuous
 62
     7
370
    25
100
AcDbSpline
210
0.0
220
0.0
230
1.0
 70
     8
 71
     3
 72
     8
 73
     4
 74
     0
 42
0.000000001
 43
0.00000001
 40
0.0
 40
0.0
 40
0.0
 40
0.0
 40
0.0166703412896466
 40
0.0166703412896466
 40
0.0166703412896466
 40
0.0166703412896466
 10
356.4680694420172
 20
408.2089663896014
 30
0.0
 10
358.8987387735604
 20
401.7108081819936
 30
0.0
 10
359.9650976975603
 20
395.3658335657885
 30
0.0
 10
360.0000000006085
 20
389.1241546699243
 30
0.0
  0
SPLINE
  5
300
330
1F
100
AcDbEntity
  8
0
  6
Continuous
 62
     7
370
    25
100
AcDbSpline
210
0.0
220
0.0
230
1.0
 70
     8
 71
     3
 72
    10
 73
     6
 74
     0
 42
0.000000001
 43
0.00000001
 40
0.0172364986238739
 40
0.0172364986238739
 40
0.0172364986238739
 40
0.0172364986238739
 40
0.0741442115692072
 40
0.3393209260201918
 40
0.4128219826696883
 40
0.4128219826696883
 40
0.4128219826696883
 40
0.4128219826696883
 10
-359.9999999989166
 20
388.4885713428167
 30
0.0
 10
-359.8812904835083
 20
367.2050438719008
 30
0.0
 10
-291.9246367863631
 20
253.4464120672709
 30
0.0
 10
-261.6960532739466
 20
82.22934689276062
 30
0.0
 10
-359.003018229231
 20
-34.10515827961813
 30
0.0
 10
-359.9999999997308
 20
-59.96472879109891
 30
0.0
  0
SPLINE
  5
301
330
1F
100
AcDbEntity
  8
0
  6
Continuous
 62
     7
370
    25
100
AcDbSpline
210
0.0
220
0.0
230
1.0
 70
     8
 71
     3
 72
    10
 73
     6
 74
     0
 42
0.000000001
 43
0.00000001
 40
0.0172364986238545
 40
0.0172364986238545
 40
0.0172364986238545
 40
0.0172364986238545
 40
0.0741442115692072
 40
0.3393209260201918
 40
0.412821982669691
 40
0.412821982669691
 40
0.412821982669691
 40
0.412821982669691
 10
360.0000000001339
 20
388.4885713428386
 30
0.0
 10
359.8812904847336
 20
367.2050438719145
 30
0.0
 10
291.9246367875818
 20
253.4464120672793
 30
0.0
 10
261.6960532751635
 20
82.22934689275945
 30
0.0
 10
359.0030182304496
 20
-34.10515827961996
 30
0.0
 10
360.0000000009479
 20
-59.96472879110172
 30
0.0
  0
LINE
  5
304
330
1F
100
AcDbEntity
  8
0
  6
Continuous
 62
     7
370
    25
100
AcDbLine
 10
-359.9999999994
 20
-59.9647287911
 30
0.0
 11
-359.9999999994
 21
-63.734785279
 31
0.0
  0
LINE
  5
305
330
1F
100
AcDbEntity
  8
0
  6
Continuous
 62
     7
370
    25
100
AcDbLine
 10
-359.9999999994
 20
389.1241543916
 30
0.0
 11
-359.9999999994
 21
388.4885713428
 31
0.0
  0
LINE
  5
306
330
1F
100
AcDbEntity
  8
0
  6
Continuous
 62
     7
370
    25
100
AcDbLine
 10
360.0000000006
 20
388.4885713428
 30
0.0
 11
360.0000000006
 21
389.1241546699
 31
0.0
  0
LINE
  5
307
330
1F
100
AcDbEntity
  8
0
  6
Continuous
 62
     7
370
    25
100
AcDbLine
 10
360.0000000006
 20
-63.734785279
 30
0.0
 11
360.0000000006
 21
-59.9647287911
 31
0.0
  0
LINE
  5
308
330
1F
100
AcDbEntity
  8
0
  6
Continuous
 62
     7
370
    25
100
AcDbLine
 10
-355.8662213022
 20
-728.5
 30
0.0
 11
355.8662213034
 21
-728.5
 31
0.0
  0
LINE
  5
309
330
1F
100
AcDbEntity
  8
0
  6
Continuous
 62
     7
370
    25
100
AcDbLine
 10
-11.4999999994
 20
718.5
 30
0.0
 11
-1.4999999994
 21
718.5
 31
0.0
  0
LINE
  5
30A
330
1F
100
AcDbEntity
  8
0
  6
Continuous
 62
     7
370
    25
100
AcDbLine
 10
-1.4999999994
 20
718.5
 30
0.0
 11
-1.4999999994
 21
721.5
 31
0.0
  0
LINE
  5
30B
330
1F
100
AcDbEntity
  8
0
  6
Continuous
 62
     7
370
    25
100
AcDbLine
 10
-1.4999999994
 20
721.5
 30
0.0
 11
-11.4999999994
 21
721.5
 31
0.0
  0
LINE
  5
30C
330
1F
100
AcDbEntity
  8
0
  6
Continuous
 62
     7
370
    25
100
AcDbLine
 10
-11.4999999994
 20
721.5
 30
0.0
 11
-11.4999999994
 21
718.5
 31
0.0
  0
LINE
  5
30D
330
1F
100
AcDbEntity
  8
0
  6
Continuous
 62
     7
370
    25
100
AcDbLine
 10
40.5000000006
 20
701.5
 30
0.0
 11
40.5000000006
 21
698.5
 31
0.0
  0
LINE
  5
30E
330
1F
100
AcDbEntity
  8
0
  6
Continuous
 62
     7
370
    25
100
AcDbLine
 10
40.5000000006
 20
698.5
 30
0.0
 11
50.5000000006
 21
698.5
 31
0.0
  0
LINE
  5
30F
330
1F
100
AcDbEntity
  8
0
  6
Continuous
 62
     7
370
    25
100
AcDbLine
 10
50.5000000006
 20
698.5
 30
0.0
 11
50.5000000006
 21
701.5
 31
0.0
  0
LINE
  5
310
330
1F
100
AcDbEntity
  8
0
  6
Continuous
 62
     7
370
    25
100
AcDbLine
 10
50.5000000006
 20
701.5
 30
0.0
 11
40.5000000006
 21
701.5
 31
0.0
  0
LINE
  5
311
330
1F
100
AcDbEntity
  8
0
  6
Continuous
 62
     7
370
    25
100
AcDbLine
 10
53.5000000006
 20
701.5
 30
0.0
 11
53.5000000006
 21
698.5
 31
0.0
  0
LINE
  5
312
330
1F
100
AcDbEntity
  8
0
  6
Continuous
 62
     7
370
    25
100
AcDbLine
 10
53.5000000006
 20
698.5
 30
0.0
 11
63.5000000006
 21
698.5
 31
0.0
  0
LINE
  5
313
330
1F
100
AcDbEntity
  8
0
  6
Continuous
 62
     7
370
    25
100
AcDbLine
 10
63.5000000006
 20
698.5
 30
0.0
 11
63.5000000006
 21
701.5
 31
0.0
  0
LINE
  5
314
330
1F
100
AcDbEntity
  8
0
  6
Continuous
 62
     7
370
    25
100
AcDbLine
 10
63.5000000006
 20
701.5
 30
0.0
 11
53.5000000006
 21
701.5
 31
0.0
  0
LINE
  5
315
330
1F
100
AcDbEntity
  8
0
  6
Continuous
 62
     7
370
    25
100
AcDbLine
 10
14.5000000006
 20
691.5
 30
0.0
 11
14.5000000006
 21
688.5
 31
0.0
  0
LINE
  5
316
330
1F
100
AcDbEntity
  8
0
  6
Continuous
 62
     7
370
    25
100
AcDbLine
 10
14.5000000006
 20
688.5
 30
0.0
 11
24.5000000006
 21
688.5
 31
0.0
  0
LINE
  5
317
330
1F
100
AcDbEntity
  8
0
  6
Continuous
 62
     7
370
    25
100
AcDbLine
 10
24.5000000006
 20
688.5
 30
0.0
 11
24.5000000006
 21
691.5
 31
0.0
  0
LINE
  5
318
330
1F
100
AcDbEntity
  8
0
  6
Continuous
 62
     7
370
    25
100
AcDbLine
 10
24.5000000006
 20
691.5
 30
0.0
 11
14.5000000006
 21
691.5
 31
0.0
  0
LINE
  5
319
330
1F
100
AcDbEntity
  8
0
  6
Continuous
 62
     7
370
    25
100
AcDbLine
 10
27.5000000006
 20
691.5
 30
0.0
 11
27.5000000006
 21
688.5
 31
0.0
  0
LINE
  5
31A
330
1F
100
AcDbEntity
  8
0
  6
Continuous
 62
     7
370
    25
100
AcDbLine
 10
27.5000000006
 20
688.5
 30
0.0
 11
37.5000000006
 21
688.5
 31
0.0
  0
LINE
  5
31B
330
1F
100
AcDbEntity
  8
0
  6
Continuous
 62
     7
370
    25
100
AcDbLine
 10
37.5000000006
 20
688.5
 30
0.0
 11
37.5000000006
 21
691.5
 31
0.0
  0
LINE
  5
31C
330
1F
100
AcDbEntity
  8
0
  6
Continuous
 62
     7
370
    25
100
AcDbLine
 10
37.5000000006
 20
691.5
 30
0.0
 11
27.5000000006
 21
691.5
 31
0.0
  0
LINE
  5
31D
330
1F
100
AcDbEntity
  8
0
  6
Continuous
 62
     7
370
    25
100
AcDbLine
 10
14.5000000006
 20
681.5
 30
0.0
 11
14.5000000006
 21
678.5
 31
0.0
  0
LINE
  5
31E
330
1F
100
AcDbEntity
  8
0
  6
Continuous
 62
     7
370
    25
100
AcDbLine
 10
14.5000000006
 20
678.5
 30
0.0
 11
24.5000000006
 21
678.5
 31
0.0
  0
LINE
  5
31F
330
1F
100
AcDbEntity
  8
0
  6
Continuous
 62
     7
370
    25
100
AcDbLine
 10
24.5000000006
 20
678.5
 30
0.0
 11
24.5000000006
 21
681.5
 31
0.0
  0
LINE
  5
320
330
1F
100
AcDbEntity
  8
0
  6
Continuous
 62
     7
370
    25
100
AcDbLine
 10
24.5000000006
 20
681.5
 30
0.0
 11
14.5000000006
 21
681.5
 31
0.0
  0
LINE
  5
321
330
1F
100
AcDbEntity
  8
0
  6
Continuous
 62
     7
370
    25
100
AcDbLine
 10
66.5000000006
 20
691.5
 30
0.0
 11
66.5000000006
 21
688.5
 31
0.0
  0
LINE
  5
322
330
1F
100
AcDbEntity
  8
0
  6
Continuous
 62
     7
370
    25
100
AcDbLine
 10
66.5000000006
 20
688.5
 30
0.0
 11
76.5000000006
 21
688.5
 31
0.0
  0
LINE
  5
323
330
1F
100
AcDbEntity
  8
0
  6
Continuous
 62
     7
370
    25
100
AcDbLine
 10
76.5000000006
 20
688.5
 30
0.0
 11
76.5000000006
 21
691.5
 31
0.0
  0
LINE
  5
324
330
1F
100
AcDbEntity
  8
0
  6
Continuous
 62
     7
370
    25
100
AcDbLine
 10
76.5000000006
 20
691.5
 30
0.0
 11
66.5000000006
 21
691.5
 31
0.0
  0
LINE
  5
325
330
1F
100
AcDbEntity
  8
0
  6
Continuous
 62
     7
370
    25
100
AcDbLine
 10
53.5000000006
 20
691.5
 30
0.0
 11
53.5000000006
 21
688.5
 31
0.0
  0
LINE
  5
326
330
1F
100
AcDbEntity
  8
0
  6
Continuous
 62
     7
370
    25
100
AcDbLine
 10
53.5000000006
 20
688.5
 30
0.0
 11
63.5000000006
 21
688.5
 31
0.0
  0
LINE
  5
327
330
1F
100
AcDbEntity
  8
0
  6
Continuous
 62
     7
370
    25
100
AcDbLine
 10
63.5000000006
 20
688.5
 30
0.0
 11
63.5000000006
 21
691.5
 31
0.0
  0
LINE
  5
328
330
1F
100
AcDbEntity
  8
0
  6
Continuous
 62
     7
370
    25
100
AcDbLine
 10
63.5000000006
 20
691.5
 30
0.0
 11
53.5000000006
 21
691.5
 31
0.0
  0
LINE
  5
329
330
1F
100
AcDbEntity
  8
0
  6
Continuous
 62
     7
370
    25
100
AcDbLine
 10
40.5000000006
 20
691.5
 30
0.0
 11
40.5000000006
 21
688.5
 31
0.0
  0
LINE
  5
32A
330
1F
100
AcDbEntity
  8
0
  6
Continuous
 62
     7
370
    25
100
AcDbLine
 10
40.5000000006
 20
688.5
 30
0.0
 11
50.5000000006
 21
688.5
 31
0.0
  0
LINE
  5
32B
330
1F
100
AcDbEntity
  8
0
  6
Continuous
 62
     7
370
    25
100
AcDbLine
 10
50.5000000006
 20
688.5
 30
0.0
 11
50.5000000006
 21
691.5
 31
0.0
  0
LINE
  5
32C
330
1F
100
AcDbEntity
  8
0
  6
Continuous
 62
     7
370
    25
100
AcDbLine
 10
50.5000000006
 20
691.5
 30
0.0
 11
40.5000000006
 21
691.5
 31
0.0
  0
LINE
  5
32D
330
1F
100
AcDbEntity
  8
0
  6
Continuous
 62
     7
370
    25
100
AcDbLine
 10
1.5000000006
 20
721.5
 30
0.0
 11
1.5000000006
 21
718.5
 31
0.0
  0
LINE
  5
32E
330
1F
100
AcDbEntity
  8
0
  6
Continuous
 62
     7
370
    25
100
AcDbLine
 10
1.5000000006
 20
718.5
 30
0.0
 11
11.5000000006
 21
718.5
 31
0.0
  0
LINE
  5
32F
330
1F
100
AcDbEntity
  8
0
  6
Continuous
 62
     7
370
    25
100
AcDbLine
 10
11.5000000006
 20
718.5
 30
0.0
 11
11.5000000006
 21
721.5
 31
0.0
  0
LINE
  5
330
330
1F
100
AcDbEntity
  8
0
  6
Continuous
 62
     7
370
    25
100
AcDbLine
 10
11.5000000006
 20
721.5
 30
0.0
 11
1.5000000006
 21
721.5
 31
0.0
  0
LINE
  5
331
330
1F
100
AcDbEntity
  8
0
  6
Continuous
 62
     7
370
    25
100
AcDbLine
 10
14.5000000006
 20
721.5
 30
0.0
 11
14.5000000006
 21
718.5
 31
0.0
  0
LINE
  5
332
330
1F
100
AcDbEntity
  8
0
  6
Continuous
 62
     7
370
    25
100
AcDbLine
 10
14.5000000006
 20
718.5
 30
0.0
 11
24.5000000006
 21
718.5
 31
0.0
  0
LINE
  5
333
330
1F
100
AcDbEntity
  8
0
  6
Continuous
 62
     7
370
    25
100
AcDbLine
 10
24.5000000006
 20
718.5
 30
0.0
 11
24.5000000006
 21
721.5
 31
0.0
  0
LINE
  5
334
330
1F
100
AcDbEntity
  8
0
  6
Continuous
 62
     7
370
    25
100
AcDbLine
 10
24.5000000006
 20
721.5
 30
0.0
 11
14.5000000006
 21
721.5
 31
0.0
  0
LINE
  5
335
330
1F
100
AcDbEntity
  8
0
  6
Continuous
 62
     7
370
    25
100
AcDbLine
 10
14.5000000006
 20
711.5
 30
0.0
 11
14.5000000006
 21
708.5
 31
0.0
  0
LINE
  5
336
330
1F
100
AcDbEntity
  8
0
  6
Continuous
 62
     7
370
    25
100
AcDbLine
 10
14.5000000006
 20
708.5
 30
0.0
 11
24.5000000006
 21
708.5
 31
0.0
  0
LINE
  5
337
330
1F
100
AcDbEntity
  8
0
  6
Continuous
 62
     7
370
    25
100
AcDbLine
 10
24.5000000006
 20
708.5
 30
0.0
 11
24.5000000006
 21
711.5
 31
0.0
  0
LINE
  5
338
330
1F
100
AcDbEntity
  8
0
  6
Continuous
 62
     7
370
    25
100
AcDbLine
 10
24.5000000006
 20
711.5
 30
0.0
 11
14.5000000006
 21
711.5
 31
0.0
  0
LINE
  5
339
330
1F
100
AcDbEntity
  8
0
  6
Continuous
 62
     7
370
    25
100
AcDbLine
 10
27.5000000006
 20
711.5
 30
0.0
 11
27.5000000006
 21
708.5
 31
0.0
  0
LINE
  5
33A
330
1F
100
AcDbEntity
  8
0
  6
Continuous
 62
     7
370
    25
100
AcDbLine
 10
27.5000000006
 20
708.5
 30
0.0
 11
37.5000000006
 21
708.5
 31
0.0
  0
LINE
  5
33B
330
1F
100
AcDbEntity
  8
0
  6
Continuous
 62
     7
370
    25
100
AcDbLine
 10
37.5000000006
 20
708.5
 30
0.0
 11
37.5000000006
 21
711.5
 31
0.0
  0
LINE
  5
33C
330
1F
100
AcDbEntity
  8
0
  6
Continuous
 62
     7
370
    25
100
AcDbLine
 10
37.5000000006
 20
711.5
 30
0.0
 11
27.5000000006
 21
711.5
 31
0.0
  0
LINE
  5
33D
330
1F
100
AcDbEntity
  8
0
  6
Continuous
 62
     7
370
    25
100
AcDbLine
 10
40.5000000006
 20
711.5
 30
0.0
 11
40.5000000006
 21
708.5
 31
0.0
  0
LINE
  5
33E
330
1F
100
AcDbEntity
  8
0
  6
Continuous
 62
     7
370
    25
100
AcDbLine
 10
40.5000000006
 20
708.5
 30
0.0
 11
50.5000000006
 21
708.5
 31
0.0
  0
LINE
  5
33F
330
1F
100
AcDbEntity
  8
0
  6
Continuous
 62
     7
370
    25
100
AcDbLine
 10
50.5000000006
 20
708.5
 30
0.0
 11
50.5000000006
 21
711.5
 31
0.0
  0
LINE
  5
340
330
1F
100
AcDbEntity
  8
0
  6
Continuous
 62
     7
370
    25
100
AcDbLine
 10
50.5000000006
 20
711.5
 30
0.0
 11
40.5000000006
 21
711.5
 31
0.0
  0
LINE
  5
341
330
1F
100
AcDbEntity
  8
0
  6
Continuous
 62
     7
370
    25
100
AcDbLine
 10
14.5000000006
 20
701.5
 30
0.0
 11
14.5000000006
 21
698.5
 31
0.0
  0
LINE
  5
342
330
1F
100
AcDbEntity
  8
0
  6
Continuous
 62
     7
370
    25
100
AcDbLine
 10
14.5000000006
 20
698.5
 30
0.0
 11
24.5000000006
 21
698.5
 31
0.0
  0
LINE
  5
343
330
1F
100
AcDbEntity
  8
0
  6
Continuous
 62
     7
370
    25
100
AcDbLine
 10
24.5000000006
 20
698.5
 30
0.0
 11
24.5000000006
 21
701.5
 31
0.0
  0
LINE
  5
344
330
1F
100
AcDbEntity
  8
0
  6
Continuous
 62
     7
370
    25
100
AcDbLine
 10
24.5000000006
 20
701.5
 30
0.0
 11
14.5000000006
 21
701.5
 31
0.0
  0
LINE
  5
345
330
1F
100
AcDbEntity
  8
0
  6
Continuous
 62
     7
370
    25
100
AcDbLine
 10
27.5000000006
 20
701.5
 30
0.0
 11
27.5000000006
 21
698.5
 31
0.0
  0
LINE
  5
346
330
1F
100
AcDbEntity
  8
0
  6
Continuous
 62
     7
370
    25
100
AcDbLine
 10
27.5000000006
 20
698.5
 30
0.0
 11
37.5000000006
 21
698.5
 31
0.0
  0
LINE
  5
347
330
1F
100
AcDbEntity
  8
0
  6
Continuous
 62
     7
370
    25
100
AcDbLine
 10
37.5000000006
 20
698.5
 30
0.0
 11
37.5000000006
 21
701.5
 31
0.0
  0
LINE
  5
348
330
1F
100
AcDbEntity
  8
0
  6
Continuous
 62
     7
370
    25
100
AcDbLine
 10
37.5000000006
 20
701.5
 30
0.0
 11
27.5000000006
 21
701.5
 31
0.0
  0
LINE
  5
349
330
1F
100
AcDbEntity
  8
0
  6
Continuous
 62
     7
370
    25
100
AcDbLine
 10
-50.4999999994
 20
678.5
 30
0.0
 11
-40.4999999994
 21
678.5
 31
0.0
  0
LINE
  5
34A
330
1F
100
AcDbEntity
  8
0
  6
Continuous
 62
     7
370
    25
100
AcDbLine
 10
-40.4999999994
 20
678.5
 30
0.0
 11
-40.4999999994
 21
681.5
 31
0.0
  0
LINE
  5
34B
330
1F
100
AcDbEntity
  8
0
  6
Continuous
 62
     7
370
    25
100
AcDbLine
 10
-40.4999999994
 20
681.5
 30
0.0
 11
-50.4999999994
 21
681.5
 31
0.0
  0
LINE
  5
34C
330
1F
100
AcDbEntity
  8
0
  6
Continuous
 62
     7
370
    25
100
AcDbLine
 10
-50.4999999994
 20
681.5
 30
0.0
 11
-50.4999999994
 21
678.5
 31
0.0
  0
LINE
  5
34D
330
1F
100
AcDbEntity
  8
0
  6
Continuous
 62
     7
370
    25
100
AcDbLine
 10
-63.4999999994
 20
678.5
 30
0.0
 11
-53.4999999994
 21
678.5
 31
0.0
  0
LINE
  5
34E
330
1F
100
AcDbEntity
  8
0
  6
Continuous
 62
     7
370
    25
100
AcDbLine
 10
-53.4999999994
 20
678.5
 30
0.0
 11
-53.4999999994
 21
681.5
 31
0.0
  0
LINE
  5
34F
330
1F
100
AcDbEntity
  8
0
  6
Continuous
 62
     7
370
    25
100
AcDbLine
 10
-53.4999999994
 20
681.5
 30
0.0
 11
-63.4999999994
 21
681.5
 31
0.0
  0
LINE
  5
350
330
1F
100
AcDbEntity
  8
0
  6
Continuous
 62
     7
370
    25
100
AcDbLine
 10
-63.4999999994
 20
681.5
 30
0.0
 11
-63.4999999994
 21
678.5
 31
0.0
  0
LINE
  5
351
330
1F
100
AcDbEntity
  8
0
  6
Continuous
 62
     7
370
    25
100
AcDbLine
 10
-76.4999999994
 20
678.5
 30
0.0
 11
-66.4999999994
 21
678.5
 31
0.0
  0
LINE
  5
352
330
1F
100
AcDbEntity
  8
0
  6
Continuous
 62
     7
370
    25
100
AcDbLine
 10
-66.4999999994
 20
678.5
 30
0.0
 11
-66.4999999994
 21
681.5
 31
0.0
  0
LINE
  5
353
330
1F
100
AcDbEntity
  8
0
  6
Continuous
 62
     7
370
    25
100
AcDbLine
 10
-66.4999999994
 20
681.5
 30
0.0
 11
-76.4999999994
 21
681.5
 31
0.0
  0
LINE
  5
354
330
1F
100
AcDbEntity
  8
0
  6
Continuous
 62
     7
370
    25
100
AcDbLine
 10
-76.4999999994
 20
681.5
 30
0.0
 11
-76.4999999994
 21
678.5
 31
0.0
  0
LINE
  5
355
330
1F
100
AcDbEntity
  8
0
  6
Continuous
 62
     7
370
    25
100
AcDbLine
 10
-89.4999999994
 20
678.5
 30
0.0
 11
-79.4999999994
 21
678.5
 31
0.0
  0
LINE
  5
356
330
1F
100
AcDbEntity
  8
0
  6
Continuous
 62
     7
370
    25
100
AcDbLine
 10
-79.4999999994
 20
678.5
 30
0.0
 11
-79.4999999994
 21
681.5
 31
0.0
  0
LINE
  5
357
330
1F
100
AcDbEntity
  8
0
  6
Continuous
 62
     7
370
    25
100
AcDbLine
 10
-79.4999999994
 20
681.5
 30
0.0
 11
-89.4999999994
 21
681.5
 31
0.0
  0
LINE
  5
358
330
1F
100
AcDbEntity
  8
0
  6
Continuous
 62
     7
370
    25
100
AcDbLine
 10
-89.4999999994
 20
681.5
 30
0.0
 11
-89.4999999994
 21
678.5
 31
0.0
  0
LINE
  5
359
330
1F
100
AcDbEntity
  8
0
  6
Continuous
 62
     7
370
    25
100
AcDbLine
 10
-24.4999999994
 20
668.5
 30
0.0
 11
-14.4999999994
 21
668.5
 31
0.0
  0
LINE
  5
35A
330
1F
100
AcDbEntity
  8
0
  6
Continuous
 62
     7
370
    25
100
AcDbLine
 10
-14.4999999994
 20
668.5
 30
0.0
 11
-14.4999999994
 21
671.5
 31
0.0
  0
LINE
  5
35B
330
1F
100
AcDbEntity
  8
0
  6
Continuous
 62
     7
370
    25
100
AcDbLine
 10
-14.4999999994
 20
671.5
 30
0.0
 11
-24.4999999994
 21
671.5
 31
0.0
  0
LINE
  5
35C
330
1F
100
AcDbEntity
  8
0
  6
Continuous
 62
     7
370
    25
100
AcDbLine
 10
-24.4999999994
 20
671.5
 30
0.0
 11
-24.4999999994
 21
668.5
 31
0.0
  0
LINE
  5
35D
330
1F
100
AcDbEntity
  8
0
  6
Continuous
 62
     7
370
    25
100
AcDbLine
 10
-37.4999999994
 20
668.5
 30
0.0
 11
-27.4999999994
 21
668.5
 31
0.0
  0
LINE
  5
35E
330
1F
100
AcDbEntity
  8
0
  6
Continuous
 62
     7
370
    25
100
AcDbLine
 10
-27.4999999994
 20
668.5
 30
0.0
 11
-27.4999999994
 21
671.5
 31
0.0
  0
LINE
  5
35F
330
1F
100
AcDbEntity
  8
0
  6
Continuous
 62
     7
370
    25
100
AcDbLine
 10
-27.4999999994
 20
671.5
 30
0.0
 11
-37.4999999994
 21
671.5
 31
0.0
  0
LINE
  5
360
330
1F
100
AcDbEntity
  8
0
  6
Continuous
 62
     7
370
    25
100
AcDbLine
 10
-37.4999999994
 20
671.5
 30
0.0
 11
-37.4999999994
 21
668.5
 31
0.0
  0
LINE
  5
361
330
1F
100
AcDbEntity
  8
0
  6
Continuous
 62
     7
370
    25
100
AcDbLine
 10
-50.4999999994
 20
668.5
 30
0.0
 11
-40.4999999994
 21
668.5
 31
0.0
  0
LINE
  5
362
330
1F
100
AcDbEntity
  8
0
  6
Continuous
 62
     7
370
    25
100
AcDbLine
 10
-40.4999999994
 20
668.5
 30
0.0
 11
-40.4999999994
 21
671.5
 31
0.0
  0
LINE
  5
363
330
1F
100
AcDbEntity
  8
0
  6
Continuous
 62
     7
370
    25
100
AcDbLine
 10
-40.4999999994
 20
671.5
 30
0.0
 11
-50.4999999994
 21
671.5
 31
0.0
  0
LINE
  5
364
330
1F
100
AcDbEntity
  8
0
  6
Continuous
 62
     7
370
    25
100
AcDbLine
 10
-50.4999999994
 20
671.5
 30
0.0
 11
-50.4999999994
 21
668.5
 31
0.0
  0
LINE
  5
365
330
1F
100
AcDbEntity
  8
0
  6
Continuous
 62
     7
370
    25
100
AcDbLine
 10
-63.4999999994
 20
668.5
 30
0.0
 11
-53.4999999994
 21
668.5
 31
0.0
  0
LINE
  5
366
330
1F
100
AcDbEntity
  8
0
  6
Continuous
 62
     7
370
    25
100
AcDbLine
 10
-53.4999999994
 20
668.5
 30
0.0
 11
-53.4999999994
 21
671.5
 31
0.0
  0
LINE
  5
367
330
1F
100
AcDbEntity
  8
0
  6
Continuous
 62
     7
370
    25
100
AcDbLine
 10
-53.4999999994
 20
671.5
 30
0.0
 11
-63.4999999994
 21
671.5
 31
0.0
  0
LINE
  5
368
330
1F
100
AcDbEntity
  8
0
  6
Continuous
 62
     7
370
    25
100
AcDbLine
 10
-63.4999999994
 20
671.5
 30
0.0
 11
-63.4999999994
 21
668.5
 31
0.0
  0
LINE
  5
369
330
1F
100
AcDbEntity
  8
0
  6
Continuous
 62
     7
370
    25
100
AcDbLine
 10
-76.4999999994
 20
658.5
 30
0.0
 11
-66.4999999994
 21
658.5
 31
0.0
  0
LINE
  5
36A
330
1F
100
AcDbEntity
  8
0
  6
Continuous
 62
     7
370
    25
100
AcDbLine
 10
-66.4999999994
 20
658.5
 30
0.0
 11
-66.4999999994
 21
661.5
 31
0.0
  0
LINE
  5
36B
330
1F
100
AcDbEntity
  8
0
  6
Continuous
 62
     7
370
    25
100
AcDbLine
 10
-66.4999999994
 20
661.5
 30
0.0
 11
-76.4999999994
 21
661.5
 31
0.0
  0
LINE
  5
36C
330
1F
100
AcDbEntity
  8
0
  6
Continuous
 62
     7
370
    25
100
AcDbLine
 10
-76.4999999994
 20
661.5
 30
0.0
 11
-76.4999999994
 21
658.5
 31
0.0
  0
LINE
  5
36D
330
1F
100
AcDbEntity
  8
0
  6
Continuous
 62
     7
370
    25
100
AcDbLine
 10
-63.4999999994
 20
658.5
 30
0.0
 11
-53.4999999994
 21
658.5
 31
0.0
  0
LINE
  5
36E
330
1F
100
AcDbEntity
  8
0
  6
Continuous
 62
     7
370
    25
100
AcDbLine
 10
-53.4999999994
 20
658.5
 30
0.0
 11
-53.4999999994
 21
661.5
 31
0.0
  0
LINE
  5
36F
330
1F
100
AcDbEntity
  8
0
  6
Continuous
 62
     7
370
    25
100
AcDbLine
 10
-53.4999999994
 20
661.5
 30
0.0
 11
-63.4999999994
 21
661.5
 31
0.0
  0
LINE
  5
370
330
1F
100
AcDbEntity
  8
0
  6
Continuous
 62
     7
370
    25
100
AcDbLine
 10
-63.4999999994
 20
661.5
 30
0.0
 11
-63.4999999994
 21
658.5
 31
0.0
  0
LINE
  5
371
330
1F
100
AcDbEntity
  8
0
  6
Continuous
 62
     7
370
    25
100
AcDbLine
 10
-50.4999999994
 20
658.5
 30
0.0
 11
-40.4999999994
 21
658.5
 31
0.0
  0
LINE
  5
372
330
1F
100
AcDbEntity
  8
0
  6
Continuous
 62
     7
370
    25
100
AcDbLine
 10
-40.4999999994
 20
658.5
 30
0.0
 11
-40.4999999994
 21
661.5
 31
0.0
  0
LINE
  5
373
330
1F
100
AcDbEntity
  8
0
  6
Continuous
 62
     7
370
    25
100
AcDbLine
 10
-40.4999999994
 20
661.5
 30
0.0
 11
-50.4999999994
 21
661.5
 31
0.0
  0
LINE
  5
374
330
1F
100
AcDbEntity
  8
0
  6
Continuous
 62
     7
370
    25
100
AcDbLine
 10
-50.4999999994
 20
661.5
 30
0.0
 11
-50.4999999994
 21
658.5
 31
0.0
  0
LINE
  5
375
330
1F
100
AcDbEntity
  8
0
  6
Continuous
 62
     7
370
    25
100
AcDbLine
 10
-37.4999999994
 20
658.5
 30
0.0
 11
-27.4999999994
 21
658.5
 31
0.0
  0
LINE
  5
376
330
1F
100
AcDbEntity
  8
0
  6
Continuous
 62
     7
370
    25
100
AcDbLine
 10
-27.4999999994
 20
658.5
 30
0.0
 11
-27.4999999994
 21
661.5
 31
0.0
  0
LINE
  5
377
330
1F
100
AcDbEntity
  8
0
  6
Continuous
 62
     7
370
    25
100
AcDbLine
 10
-27.4999999994
 20
661.5
 30
0.0
 11
-37.4999999994
 21
661.5
 31
0.0
  0
LINE
  5
378
330
1F
100
AcDbEntity
  8
0
  6
Continuous
 62
     7
370
    25
100
AcDbLine
 10
-37.4999999994
 20
661.5
 30
0.0
 11
-37.4999999994
 21
658.5
 31
0.0
  0
LINE
  5
379
330
1F
100
AcDbEntity
  8
0
  6
Continuous
 62
     7
370
    25
100
AcDbLine
 10
-76.4999999994
 20
668.5
 30
0.0
 11
-66.4999999994
 21
668.5
 31
0.0
  0
LINE
  5
37A
330
1F
100
AcDbEntity
  8
0
  6
Continuous
 62
     7
370
    25
100
AcDbLine
 10
-66.4999999994
 20
668.5
 30
0.0
 11
-66.4999999994
 21
671.5
 31
0.0
  0
LINE
  5
37B
330
1F
100
AcDbEntity
  8
0
  6
Continuous
 62
     7
370
    25
100
AcDbLine
 10
-66.4999999994
 20
671.5
 30
0.0
 11
-76.4999999994
 21
671.5
 31
0.0
  0
LINE
  5
37C
330
1F
100
AcDbEntity
  8
0
  6
Continuous
 62
     7
370
    25
100
AcDbLine
 10
-76.4999999994
 20
671.5
 30
0.0
 11
-76.4999999994
 21
668.5
 31
0.0
  0
LINE
  5
37D
330
1F
100
AcDbEntity
  8
0
  6
Continuous
 62
     7
370
    25
100
AcDbLine
 10
-89.4999999994
 20
668.5
 30
0.0
 11
-79.4999999994
 21
668.5
 31
0.0
  0
LINE
  5
37E
330
1F
100
AcDbEntity
  8
0
  6
Continuous
 62
     7
370
    25
100
AcDbLine
 10
-79.4999999994
 20
668.5
 30
0.0
 11
-79.4999999994
 21
671.5
 31
0.0
  0
LINE
  5
37F
330
1F
100
AcDbEntity
  8
0
  6
Continuous
 62
     7
370
    25
100
AcDbLine
 10
-79.4999999994
 20
671.5
 30
0.0
 11
-89.4999999994
 21
671.5
 31
0.0
  0
LINE
  5
380
330
1F
100
AcDbEntity
  8
0
  6
Continuous
 62
     7
370
    25
100
AcDbLine
 10
-89.4999999994
 20
671.5
 30
0.0
 11
-89.4999999994
 21
668.5
 31
0.0
  0
LINE
  5
381
330
1F
100
AcDbEntity
  8
0
  6
Continuous
 62
     7
370
    25
100
AcDbLine
 10
-102.4999999994
 20
668.5
 30
0.0
 11
-92.4999999994
 21
668.5
 31
0.0
  0
LINE
  5
382
330
1F
100
AcDbEntity
  8
0
  6
Continuous
 62
     7
370
    25
100
AcDbLine
 10
-92.4999999994
 20
668.5
 30
0.0
 11
-92.4999999994
 21
671.5
 31
0.0
  0
LINE
  5
383
330
1F
100
AcDbEntity
  8
0
  6
Continuous
 62
     7
370
    25
100
AcDbLine
 10
-92.4999999994
 20
671.5
 30
0.0
 11
-102.4999999994
 21
671.5
 31
0.0
  0
LINE
  5
384
330
1F
100
AcDbEntity
  8
0
  6
Continuous
 62
     7
370
    25
100
AcDbLine
 10
-102.4999999994
 20
671.5
 30
0.0
 11
-102.4999999994
 21
668.5
 31
0.0
  0
LINE
  5
385
330
1F
100
AcDbEntity
  8
0
  6
Continuous
 62
     7
370
    25
100
AcDbLine
 10
-24.4999999994
 20
658.5
 30
0.0
 11
-14.4999999994
 21
658.5
 31
0.0
  0
LINE
  5
386
330
1F
100
AcDbEntity
  8
0
  6
Continuous
 62
     7
370
    25
100
AcDbLine
 10
-14.4999999994
 20
658.5
 30
0.0
 11
-14.4999999994
 21
661.5
 31
0.0
  0
LINE
  5
387
330
1F
100
AcDbEntity
  8
0
  6
Continuous
 62
     7
370
    25
100
AcDbLine
 10
-14.4999999994
 20
661.5
 30
0.0
 11
-24.4999999994
 21
661.5
 31
0.0
  0
LINE
  5
388
330
1F
100
AcDbEntity
  8
0
  6
Continuous
 62
     7
370
    25
100
AcDbLine
 10
-24.4999999994
 20
661.5
 30
0.0
 11
-24.4999999994
 21
658.5
 31
0.0
  0
LINE
  5
389
330
1F
100
AcDbEntity
  8
0
  6
Continuous
 62
     7
370
    25
100
AcDbLine
 10
-50.4999999994
 20
708.5
 30
0.0
 11
-40.4999999994
 21
708.5
 31
0.0
  0
LINE
  5
38A
330
1F
100
AcDbEntity
  8
0
  6
Continuous
 62
     7
370
    25
100
AcDbLine
 10
-40.4999999994
 20
708.5
 30
0.0
 11
-40.4999999994
 21
711.5
 31
0.0
  0
LINE
  5
38B
330
1F
100
AcDbEntity
  8
0
  6
Continuous
 62
     7
370
    25
100
AcDbLine
 10
-40.4999999994
 20
711.5
 30
0.0
 11
-50.4999999994
 21
711.5
 31
0.0
  0
LINE
  5
38C
330
1F
100
AcDbEntity
  8
0
  6
Continuous
 62
     7
370
    25
100
AcDbLine
 10
-50.4999999994
 20
711.5
 30
0.0
 11
-50.4999999994
 21
708.5
 31
0.0
  0
LINE
  5
38D
330
1F
100
AcDbEntity
  8
0
  6
Continuous
 62
     7
370
    25
100
AcDbLine
 10
-24.4999999994
 20
698.5
 30
0.0
 11
-14.4999999994
 21
698.5
 31
0.0
  0
LINE
  5
38E
330
1F
100
AcDbEntity
  8
0
  6
Continuous
 62
     7
370
    25
100
AcDbLine
 10
-14.4999999994
 20
698.5
 30
0.0
 11
-14.4999999994
 21
701.5
 31
0.0
  0
LINE
  5
38F
330
1F
100
AcDbEntity
  8
0
  6
Continuous
 62
     7
370
    25
100
AcDbLine
 10
-14.4999999994
 20
701.5
 30
0.0
 11
-24.4999999994
 21
701.5
 31
0.0
  0
LINE
  5
390
330
1F
100
AcDbEntity
  8
0
  6
Continuous
 62
     7
370
    25
100
AcDbLine
 10
-24.4999999994
 20
701.5
 30
0.0
 11
-24.4999999994
 21
698.5
 31
0.0
  0
LINE
  5
391
330
1F
100
AcDbEntity
  8
0
  6
Continuous
 62
     7
370
    25
100
AcDbLine
 10
-37.4999999994
 20
698.5
 30
0.0
 11
-27.4999999994
 21
698.5
 31
0.0
  0
LINE
  5
392
330
1F
100
AcDbEntity
  8
0
  6
Continuous
 62
     7
370
    25
100
AcDbLine
 10
-27.4999999994
 20
698.5
 30
0.0
 11
-27.4999999994
 21
701.5
 31
0.0
  0
LINE
  5
393
330
1F
100
AcDbEntity
  8
0
  6
Continuous
 62
     7
370
    25
100
AcDbLine
 10
-27.4999999994
 20
701.5
 30
0.0
 11
-37.4999999994
 21
701.5
 31
0.0
  0
LINE
  5
394
330
1F
100
AcDbEntity
  8
0
  6
Continuous
 62
     7
370
    25
100
AcDbLine
 10
-37.4999999994
 20
701.5
 30
0.0
 11
-37.4999999994
 21
698.5
 31
0.0
  0
LINE
  5
395
330
1F
100
AcDbEntity
  8
0
  6
Continuous
 62
     7
370
    25
100
AcDbLine
 10
-50.4999999994
 20
698.5
 30
0.0
 11
-40.4999999994
 21
698.5
 31
0.0
  0
LINE
  5
396
330
1F
100
AcDbEntity
  8
0
  6
Continuous
 62
     7
370
    25
100
AcDbLine
 10
-40.4999999994
 20
698.5
 30
0.0
 11
-40.4999999994
 21
701.5
 31
0.0
  0
LINE
  5
397
330
1F
100
AcDbEntity
  8
0
  6
Continuous
 62
     7
370
    25
100
AcDbLine
 10
-40.4999999994
 20
701.5
 30
0.0
 11
-50.4999999994
 21
701.5
 31
0.0
  0
LINE
  5
398
330
1F
100
AcDbEntity
  8
0
  6
Continuous
 62
     7
370
    25
100
AcDbLine
 10
-50.4999999994
 20
701.5
 30
0.0
 11
-50.4999999994
 21
698.5
 31
0.0
  0
LINE
  5
399
330
1F
100
AcDbEntity
  8
0
  6
Continuous
 62
     7
370
    25
100
AcDbLine
 10
1.5000000006
 20
661.5
 30
0.0
 11
1.5000000006
 21
658.5
 31
0.0
  0
LINE
  5
39A
330
1F
100
AcDbEntity
  8
0
  6
Continuous
 62
     7
370
    25
100
AcDbLine
 10
1.5000000006
 20
658.5
 30
0.0
 11
11.5000000006
 21
658.5
 31
0.0
  0
LINE
  5
39B
330
1F
100
AcDbEntity
  8
0
  6
Continuous
 62
     7
370
    25
100
AcDbLine
 10
11.5000000006
 20
658.5
 30
0.0
 11
11.5000000006
 21
661.5
 31
0.0
  0
LINE
  5
39C
330
1F
100
AcDbEntity
  8
0
  6
Continuous
 62
     7
370
    25
100
AcDbLine
 10
11.5000000006
 20
661.5
 30
0.0
 11
1.5000000006
 21
661.5
 31
0.0
  0
LINE
  5
39D
330
1F
100
AcDbEntity
  8
0
  6
Continuous
 62
     7
370
    25
100
AcDbLine
 10
-24.4999999994
 20
718.5
 30
0.0
 11
-14.4999999994
 21
718.5
 31
0.0
  0
LINE
  5
39E
330
1F
100
AcDbEntity
  8
0
  6
Continuous
 62
     7
370
    25
100
AcDbLine
 10
-14.4999999994
 20
718.5
 30
0.0
 11
-14.4999999994
 21
721.5
 31
0.0
  0
LINE
  5
39F
330
1F
100
AcDbEntity
  8
0
  6
Continuous
 62
     7
370
    25
100
AcDbLine
 10
-14.4999999994
 20
721.5
 30
0.0
 11
-24.4999999994
 21
721.5
 31
0.0
  0
LINE
  5
3A0
330
1F
100
AcDbEntity
  8
0
  6
Continuous
 62
     7
370
    25
100
AcDbLine
 10
-24.4999999994
 20
721.5
 30
0.0
 11
-24.4999999994
 21
718.5
 31
0.0
  0
LINE
  5
3A1
330
1F
100
AcDbEntity
  8
0
  6
Continuous
 62
     7
370
    25
100
AcDbLine
 10
-24.4999999994
 20
708.5
 30
0.0
 11
-14.4999999994
 21
708.5
 31
0.0
  0
LINE
  5
3A2
330
1F
100
AcDbEntity
  8
0
  6
Continuous
 62
     7
370
    25
100
AcDbLine
 10
-14.4999999994
 20
708.5
 30
0.0
 11
-14.4999999994
 21
711.5
 31
0.0
  0
LINE
  5
3A3
330
1F
100
AcDbEntity
  8
0
  6
Continuous
 62
     7
370
    25
100
AcDbLine
 10
-14.4999999994
 20
711.5
 30
0.0
 11
-24.4999999994
 21
711.5
 31
0.0
  0
LINE
  5
3A4
330
1F
100
AcDbEntity
  8
0
  6
Continuous
 62
     7
370
    25
100
AcDbLine
 10
-24.4999999994
 20
711.5
 30
0.0
 11
-24.4999999994
 21
708.5
 31
0.0
  0
LINE
  5
3A5
330
1F
100
AcDbEntity
  8
0
  6
Continuous
 62
     7
370
    25
100
AcDbLine
 10
-37.4999999994
 20
708.5
 30
0.0
 11
-27.4999999994
 21
708.5
 31
0.0
  0
LINE
  5
3A6
330
1F
100
AcDbEntity
  8
0
  6
Continuous
 62
     7
370
    25
100
AcDbLine
 10
-27.4999999994
 20
708.5
 30
0.0
 11
-27.4999999994
 21
711.5
 31
0.0
  0
LINE
  5
3A7
330
1F
100
AcDbEntity
  8
0
  6
Continuous
 62
     7
370
    25
100
AcDbLine
 10
-27.4999999994
 20
711.5
 30
0.0
 11
-37.4999999994
 21
711.5
 31
0.0
  0
LINE
  5
3A8
330
1F
100
AcDbEntity
  8
0
  6
Continuous
 62
     7
370
    25
100
AcDbLine
 10
-37.4999999994
 20
711.5
 30
0.0
 11
-37.4999999994
 21
708.5
 31
0.0
  0
LINE
  5
3A9
330
1F
100
AcDbEntity
  8
0
  6
Continuous
 62
     7
370
    25
100
AcDbLine
 10
-37.4999999994
 20
678.5
 30
0.0
 11
-27.4999999994
 21
678.5
 31
0.0
  0
LINE
  5
3AA
330
1F
100
AcDbEntity
  8
0
  6
Continuous
 62
     7
370
    25
100
AcDbLine
 10
-27.4999999994
 20
678.5
 30
0.0
 11
-27.4999999994
 21
681.5
 31
0.0
  0
LINE
  5
3AB
330
1F
100
AcDbEntity
  8
0
  6
Continuous
 62
     7
370
    25
100
AcDbLine
 10
-27.4999999994
 20
681.5
 30
0.0
 11
-37.4999999994
 21
681.5
 31
0.0
  0
LINE
  5
3AC
330
1F
100
AcDbEntity
  8
0
  6
Continuous
 62
     7
370
    25
100
AcDbLine
 10
-37.4999999994
 20
681.5
 30
0.0
 11
-37.4999999994
 21
678.5
 31
0.0
  0
LINE
  5
3AD
330
1F
100
AcDbEntity
  8
0
  6
Continuous
 62
     7
370
    25
100
AcDbLine
 10
-24.4999999994
 20
678.5
 30
0.0
 11
-14.4999999994
 21
678.5
 31
0.0
  0
LINE
  5
3AE
330
1F
100
AcDbEntity
  8
0
  6
Continuous
 62
     7
370
    25
100
AcDbLine
 10
-14.4999999994
 20
678.5
 30
0.0
 11
-14.4999999994
 21
681.5
 31
0.0
  0
LINE
  5
3AF
330
1F
100
AcDbEntity
  8
0
  6
Continuous
 62
     7
370
    25
100
AcDbLine
 10
-14.4999999994
 20
681.5
 30
0.0
 11
-24.4999999994
 21
681.5
 31
0.0
  0
LINE
  5
3B0
330
1F
100
AcDbEntity
  8
0
  6
Continuous
 62
     7
370
    25
100
AcDbLine
 10
-24.4999999994
 20
681.5
 30
0.0
 11
-24.4999999994
 21
678.5
 31
0.0
  0
LINE
  5
3B1
330
1F
100
AcDbEntity
  8
0
  6
Continuous
 62
     7
370
    25
100
AcDbLine
 10
-76.4999999994
 20
688.5
 30
0.0
 11
-66.4999999994
 21
688.5
 31
0.0
  0
LINE
  5
3B2
330
1F
100
AcDbEntity
  8
0
  6
Continuous
 62
     7
370
    25
100
AcDbLine
 10
-66.4999999994
 20
688.5
 30
0.0
 11
-66.4999999994
 21
691.5
 31
0.0
  0
LINE
  5
3B3
330
1F
100
AcDbEntity
  8
0
  6
Continuous
 62
     7
370
    25
100
AcDbLine
 10
-66.4999999994
 20
691.5
 30
0.0
 11
-76.4999999994
 21
691.5
 31
0.0
  0
LINE
  5
3B4
330
1F
100
AcDbEntity
  8
0
  6
Continuous
 62
     7
370
    25
100
AcDbLine
 10
-76.4999999994
 20
691.5
 30
0.0
 11
-76.4999999994
 21
688.5
 31
0.0
  0
LINE
  5
3B5
330
1F
100
AcDbEntity
  8
0
  6
Continuous
 62
     7
370
    25
100
AcDbLine
 10
-63.4999999994
 20
688.5
 30
0.0
 11
-53.4999999994
 21
688.5
 31
0.0
  0
LINE
  5
3B6
330
1F
100
AcDbEntity
  8
0
  6
Continuous
 62
     7
370
    25
100
AcDbLine
 10
-53.4999999994
 20
688.5
 30
0.0
 11
-53.4999999994
 21
691.5
 31
0.0
  0
LINE
  5
3B7
330
1F
100
AcDbEntity
  8
0
  6
Continuous
 62
     7
370
    25
100
AcDbLine
 10
-53.4999999994
 20
691.5
 30
0.0
 11
-63.4999999994
 21
691.5
 31
0.0
  0
LINE
  5
3B8
330
1F
100
AcDbEntity
  8
0
  6
Continuous
 62
     7
370
    25
100
AcDbLine
 10
-63.4999999994
 20
691.5
 30
0.0
 11
-63.4999999994
 21
688.5
 31
0.0
  0
LINE
  5
3B9
330
1F
100
AcDbEntity
  8
0
  6
Continuous
 62
     7
370
    25
100
AcDbLine
 10
-63.4999999994
 20
698.5
 30
0.0
 11
-53.4999999994
 21
698.5
 31
0.0
  0
LINE
  5
3BA
330
1F
100
AcDbEntity
  8
0
  6
Continuous
 62
     7
370
    25
100
AcDbLine
 10
-53.4999999994
 20
698.5
 30
0.0
 11
-53.4999999994
 21
701.5
 31
0.0
  0
LINE
  5
3BB
330
1F
100
AcDbEntity
  8
0
  6
Continuous
 62
     7
370
    25
100
AcDbLine
 10
-53.4999999994
 20
701.5
 30
0.0
 11
-63.4999999994
 21
701.5
 31
0.0
  0
LINE
  5
3BC
330
1F
100
AcDbEntity
  8
0
  6
Continuous
 62
     7
370
    25
100
AcDbLine
 10
-63.4999999994
 20
701.5
 30
0.0
 11
-63.4999999994
 21
698.5
 31
0.0
  0
LINE
  5
3BD
330
1F
100
AcDbEntity
  8
0
  6
Continuous
 62
     7
370
    25
100
AcDbLine
 10
-24.4999999994
 20
688.5
 30
0.0
 11
-14.4999999994
 21
688.5
 31
0.0
  0
LINE
  5
3BE
330
1F
100
AcDbEntity
  8
0
  6
Continuous
 62
     7
370
    25
100
AcDbLine
 10
-14.4999999994
 20
688.5
 30
0.0
 11
-14.4999999994
 21
691.5
 31
0.0
  0
LINE
  5
3BF
330
1F
100
AcDbEntity
  8
0
  6
Continuous
 62
     7
370
    25
100
AcDbLine
 10
-14.4999999994
 20
691.5
 30
0.0
 11
-24.4999999994
 21
691.5
 31
0.0
  0
LINE
  5
3C0
330
1F
100
AcDbEntity
  8
0
  6
Continuous
 62
     7
370
    25
100
AcDbLine
 10
-24.4999999994
 20
691.5
 30
0.0
 11
-24.4999999994
 21
688.5
 31
0.0
  0
LINE
  5
3C1
330
1F
100
AcDbEntity
  8
0
  6
Continuous
 62
     7
370
    25
100
AcDbLine
 10
-37.4999999994
 20
688.5
 30
0.0
 11
-27.4999999994
 21
688.5
 31
0.0
  0
LINE
  5
3C2
330
1F
100
AcDbEntity
  8
0
  6
Continuous
 62
     7
370
    25
100
AcDbLine
 10
-27.4999999994
 20
688.5
 30
0.0
 11
-27.4999999994
 21
691.5
 31
0.0
  0
LINE
  5
3C3
330
1F
100
AcDbEntity
  8
0
  6
Continuous
 62
     7
370
    25
100
AcDbLine
 10
-27.4999999994
 20
691.5
 30
0.0
 11
-37.4999999994
 21
691.5
 31
0.0
  0
LINE
  5
3C4
330
1F
100
AcDbEntity
  8
0
  6
Continuous
 62
     7
370
    25
100
AcDbLine
 10
-37.4999999994
 20
691.5
 30
0.0
 11
-37.4999999994
 21
688.5
 31
0.0
  0
LINE
  5
3C5
330
1F
100
AcDbEntity
  8
0
  6
Continuous
 62
     7
370
    25
100
AcDbLine
 10
-50.4999999994
 20
688.5
 30
0.0
 11
-40.4999999994
 21
688.5
 31
0.0
  0
LINE
  5
3C6
330
1F
100
AcDbEntity
  8
0
  6
Continuous
 62
     7
370
    25
100
AcDbLine
 10
-40.4999999994
 20
688.5
 30
0.0
 11
-40.4999999994
 21
691.5
 31
0.0
  0
LINE
  5
3C7
330
1F
100
AcDbEntity
  8
0
  6
Continuous
 62
     7
370
    25
100
AcDbLine
 10
-40.4999999994
 20
691.5
 30
0.0
 11
-50.4999999994
 21
691.5
 31
0.0
  0
LINE
  5
3C8
330
1F
100
AcDbEntity
  8
0
  6
Continuous
 62
     7
370
    25
100
AcDbLine
 10
-50.4999999994
 20
691.5
 30
0.0
 11
-50.4999999994
 21
688.5
 31
0.0
  0
LINE
  5
3C9
330
1F
100
AcDbEntity
  8
0
  6
Continuous
 62
     7
370
    25
100
AcDbLine
 10
53.5000000006
 20
661.5
 30
0.0
 11
53.5000000006
 21
658.5
 31
0.0
  0
LINE
  5
3CA
330
1F
100
AcDbEntity
  8
0
  6
Continuous
 62
     7
370
    25
100
AcDbLine
 10
53.5000000006
 20
658.5
 30
0.0
 11
63.5000000006
 21
658.5
 31
0.0
  0
LINE
  5
3CB
330
1F
100
AcDbEntity
  8
0
  6
Continuous
 62
     7
370
    25
100
AcDbLine
 10
63.5000000006
 20
658.5
 30
0.0
 11
63.5000000006
 21
661.5
 31
0.0
  0
LINE
  5
3CC
330
1F
100
AcDbEntity
  8
0
  6
Continuous
 62
     7
370
    25
100
AcDbLine
 10
63.5000000006
 20
661.5
 30
0.0
 11
53.5000000006
 21
661.5
 31
0.0
  0
LINE
  5
3CD
330
1F
100
AcDbEntity
  8
0
  6
Continuous
 62
     7
370
    25
100
AcDbLine
 10
40.5000000006
 20
661.5
 30
0.0
 11
40.5000000006
 21
658.5
 31
0.0
  0
LINE
  5
3CE
330
1F
100
AcDbEntity
  8
0
  6
Continuous
 62
     7
370
    25
100
AcDbLine
 10
40.5000000006
 20
658.5
 30
0.0
 11
50.5000000006
 21
658.5
 31
0.0
  0
LINE
  5
3CF
330
1F
100
AcDbEntity
  8
0
  6
Continuous
 62
     7
370
    25
100
AcDbLine
 10
50.5000000006
 20
658.5
 30
0.0
 11
50.5000000006
 21
661.5
 31
0.0
  0
LINE
  5
3D0
330
1F
100
AcDbEntity
  8
0
  6
Continuous
 62
     7
370
    25
100
AcDbLine
 10
50.5000000006
 20
661.5
 30
0.0
 11
40.5000000006
 21
661.5
 31
0.0
  0
LINE
  5
3D1
330
1F
100
AcDbEntity
  8
0
  6
Continuous
 62
     7
370
    25
100
AcDbLine
 10
27.5000000006
 20
661.5
 30
0.0
 11
27.5000000006
 21
658.5
 31
0.0
  0
LINE
  5
3D2
330
1F
100
AcDbEntity
  8
0
  6
Continuous
 62
     7
370
    25
100
AcDbLine
 10
27.5000000006
 20
658.5
 30
0.0
 11
37.5000000006
 21
658.5
 31
0.0
  0
LINE
  5
3D3
330
1F
100
AcDbEntity
  8
0
  6
Continuous
 62
     7
370
    25
100
AcDbLine
 10
37.5000000006
 20
658.5
 30
0.0
 11
37.5000000006
 21
661.5
 31
0.0
  0
LINE
  5
3D4
330
1F
100
AcDbEntity
  8
0
  6
Continuous
 62
     7
370
    25
100
AcDbLine
 10
37.5000000006
 20
661.5
 30
0.0
 11
27.5000000006
 21
661.5
 31
0.0
  0
LINE
  5
3D5
330
1F
100
AcDbEntity
  8
0
  6
Continuous
 62
     7
370
    25
100
AcDbLine
 10
14.5000000006
 20
661.5
 30
0.0
 11
14.5000000006
 21
658.5
 31
0.0
  0
LINE
  5
3D6
330
1F
100
AcDbEntity
  8
0
  6
Continuous
 62
     7
370
    25
100
AcDbLine
 10
14.5000000006
 20
658.5
 30
0.0
 11
24.5000000006
 21
658.5
 31
0.0
  0
LINE
  5
3D7
330
1F
100
AcDbEntity
  8
0
  6
Continuous
 62
     7
370
    25
100
AcDbLine
 10
24.5000000006
 20
658.5
 30
0.0
 11
24.5000000006
 21
661.5
 31
0.0
  0
LINE
  5
3D8
330
1F
100
AcDbEntity
  8
0
  6
Continuous
 62
     7
370
    25
100
AcDbLine
 10
24.5000000006
 20
661.5
 30
0.0
 11
14.5000000006
 21
661.5
 31
0.0
  0
LINE
  5
3D9
330
1F
100
AcDbEntity
  8
0
  6
Continuous
 62
     7
370
    25
100
AcDbLine
 10
92.5000000006
 20
671.5
 30
0.0
 11
92.5000000006
 21
668.5
 31
0.0
  0
LINE
  5
3DA
330
1F
100
AcDbEntity
  8
0
  6
Continuous
 62
     7
370
    25
100
AcDbLine
 10
92.5000000006
 20
668.5
 30
0.0
 11
102.5000000006
 21
668.5
 31
0.0
  0
LINE
  5
3DB
330
1F
100
AcDbEntity
  8
0
  6
Continuous
 62
     7
370
    25
100
AcDbLine
 10
102.5000000006
 20
668.5
 30
0.0
 11
102.5000000006
 21
671.5
 31
0.0
  0
LINE
  5
3DC
330
1F
100
AcDbEntity
  8
0
  6
Continuous
 62
     7
370
    25
100
AcDbLine
 10
102.5000000006
 20
671.5
 30
0.0
 11
92.5000000006
 21
671.5
 31
0.0
  0
LINE
  5
3DD
330
1F
100
AcDbEntity
  8
0
  6
Continuous
 62
     7
370
    25
100
AcDbLine
 10
79.5000000006
 20
671.5
 30
0.0
 11
79.5000000006
 21
668.5
 31
0.0
  0
LINE
  5
3DE
330
1F
100
AcDbEntity
  8
0
  6
Continuous
 62
     7
370
    25
100
AcDbLine
 10
79.5000000006
 20
668.5
 30
0.0
 11
89.5000000006
 21
668.5
 31
0.0
  0
LINE
  5
3DF
330
1F
100
AcDbEntity
  8
0
  6
Continuous
 62
     7
370
    25
100
AcDbLine
 10
89.5000000006
 20
668.5
 30
0.0
 11
89.5000000006
 21
671.5
 31
0.0
  0
LINE
  5
3E0
330
1F
100
AcDbEntity
  8
0
  6
Continuous
 62
     7
370
    25
100
AcDbLine
 10
89.5000000006
 20
671.5
 30
0.0
 11
79.5000000006
 21
671.5
 31
0.0
  0
LINE
  5
3E1
330
1F
100
AcDbEntity
  8
0
  6
Continuous
 62
     7
370
    25
100
AcDbLine
 10
66.5000000006
 20
671.5
 30
0.0
 11
66.5000000006
 21
668.5
 31
0.0
  0
LINE
  5
3E2
330
1F
100
AcDbEntity
  8
0
  6
Continuous
 62
     7
370
    25
100
AcDbLine
 10
66.5000000006
 20
668.5
 30
0.0
 11
76.5000000006
 21
668.5
 31
0.0
  0
LINE
  5
3E3
330
1F
100
AcDbEntity
  8
0
  6
Continuous
 62
     7
370
    25
100
AcDbLine
 10
76.5000000006
 20
668.5
 30
0.0
 11
76.5000000006
 21
671.5
 31
0.0
  0
LINE
  5
3E4
330
1F
100
AcDbEntity
  8
0
  6
Continuous
 62
     7
370
    25
100
AcDbLine
 10
76.5000000006
 20
671.5
 30
0.0
 11
66.5000000006
 21
671.5
 31
0.0
  0
LINE
  5
3E5
330
1F
100
AcDbEntity
  8
0
  6
Continuous
 62
     7
370
    25
100
AcDbLine
 10
53.5000000006
 20
671.5
 30
0.0
 11
53.5000000006
 21
668.5
 31
0.0
  0
LINE
  5
3E6
330
1F
100
AcDbEntity
  8
0
  6
Continuous
 62
     7
370
    25
100
AcDbLine
 10
53.5000000006
 20
668.5
 30
0.0
 11
63.5000000006
 21
668.5
 31
0.0
  0
LINE
  5
3E7
330
1F
100
AcDbEntity
  8
0
  6
Continuous
 62
     7
370
    25
100
AcDbLine
 10
63.5000000006
 20
668.5
 30
0.0
 11
63.5000000006
 21
671.5
 31
0.0
  0
LINE
  5
3E8
330
1F
100
AcDbEntity
  8
0
  6
Continuous
 62
     7
370
    25
100
AcDbLine
 10
63.5000000006
 20
671.5
 30
0.0
 11
53.5000000006
 21
671.5
 31
0.0
  0
LINE
  5
3E9
330
1F
100
AcDbEntity
  8
0
  6
Continuous
 62
     7
370
    25
100
AcDbLine
 10
27.5000000006
 20
681.5
 30
0.0
 11
27.5000000006
 21
678.5
 31
0.0
  0
LINE
  5
3EA
330
1F
100
AcDbEntity
  8
0
  6
Continuous
 62
     7
370
    25
100
AcDbLine
 10
27.5000000006
 20
678.5
 30
0.0
 11
37.5000000006
 21
678.5
 31
0.0
  0
LINE
  5
3EB
330
1F
100
AcDbEntity
  8
0
  6
Continuous
 62
     7
370
    25
100
AcDbLine
 10
37.5000000006
 20
678.5
 30
0.0
 11
37.5000000006
 21
681.5
 31
0.0
  0
LINE
  5
3EC
330
1F
100
AcDbEntity
  8
0
  6
Continuous
 62
     7
370
    25
100
AcDbLine
 10
37.5000000006
 20
681.5
 30
0.0
 11
27.5000000006
 21
681.5
 31
0.0
  0
LINE
  5
3ED
330
1F
100
AcDbEntity
  8
0
  6
Continuous
 62
     7
370
    25
100
AcDbLine
 10
40.5000000006
 20
681.5
 30
0.0
 11
40.5000000006
 21
678.5
 31
0.0
  0
LINE
  5
3EE
330
1F
100
AcDbEntity
  8
0
  6
Continuous
 62
     7
370
    25
100
AcDbLine
 10
40.5000000006
 20
678.5
 30
0.0
 11
50.5000000006
 21
678.5
 31
0.0
  0
LINE
  5
3EF
330
1F
100
AcDbEntity
  8
0
  6
Continuous
 62
     7
370
    25
100
AcDbLine
 10
50.5000000006
 20
678.5
 30
0.0
 11
50.5000000006
 21
681.5
 31
0.0
  0
LINE
  5
3F0
330
1F
100
AcDbEntity
  8
0
  6
Continuous
 62
     7
370
    25
100
AcDbLine
 10
50.5000000006
 20
681.5
 30
0.0
 11
40.5000000006
 21
681.5
 31
0.0
  0
LINE
  5
3F1
330
1F
100
AcDbEntity
  8
0
  6
Continuous
 62
     7
370
    25
100
AcDbLine
 10
53.5000000006
 20
681.5
 30
0.0
 11
53.5000000006
 21
678.5
 31
0.0
  0
LINE
  5
3F2
330
1F
100
AcDbEntity
  8
0
  6
Continuous
 62
     7
370
    25
100
AcDbLine
 10
53.5000000006
 20
678.5
 30
0.0
 11
63.5000000006
 21
678.5
 31
0.0
  0
LINE
  5
3F3
330
1F
100
AcDbEntity
  8
0
  6
Continuous
 62
     7
370
    25
100
AcDbLine
 10
63.5000000006
 20
678.5
 30
0.0
 11
63.5000000006
 21
681.5
 31
0.0
  0
LINE
  5
3F4
330
1F
100
AcDbEntity
  8
0
  6
Continuous
 62
     7
370
    25
100
AcDbLine
 10
63.5000000006
 20
681.5
 30
0.0
 11
53.5000000006
 21
681.5
 31
0.0
  0
LINE
  5
3F5
330
1F
100
AcDbEntity
  8
0
  6
Continuous
 62
     7
370
    25
100
AcDbLine
 10
66.5000000006
 20
681.5
 30
0.0
 11
66.5000000006
 21
678.5
 31
0.0
  0
LINE
  5
3F6
330
1F
100
AcDbEntity
  8
0
  6
Continuous
 62
     7
370
    25
100
AcDbLine
 10
66.5000000006
 20
678.5
 30
0.0
 11
76.5000000006
 21
678.5
 31
0.0
  0
LINE
  5
3F7
330
1F
100
AcDbEntity
  8
0
  6
Continuous
 62
     7
370
    25
100
AcDbLine
 10
76.5000000006
 20
678.5
 30
0.0
 11
76.5000000006
 21
681.5
 31
0.0
  0
LINE
  5
3F8
330
1F
100
AcDbEntity
  8
0
  6
Continuous
 62
     7
370
    25
100
AcDbLine
 10
76.5000000006
 20
681.5
 30
0.0
 11
66.5000000006
 21
681.5
 31
0.0
  0
LINE
  5
3F9
330
1F
100
AcDbEntity
  8
0
  6
Continuous
 62
     7
370
    25
100
AcDbLine
 10
40.5000000006
 20
671.5
 30
0.0
 11
40.5000000006
 21
668.5
 31
0.0
  0
LINE
  5
3FA
330
1F
100
AcDbEntity
  8
0
  6
Continuous
 62
     7
370
    25
100
AcDbLine
 10
40.5000000006
 20
668.5
 30
0.0
 11
50.5000000006
 21
668.5
 31
0.0
  0
LINE
  5
3FB
330
1F
100
AcDbEntity
  8
0
  6
Continuous
 62
     7
370
    25
100
AcDbLine
 10
50.5000000006
 20
668.5
 30
0.0
 11
50.5000000006
 21
671.5
 31
0.0
  0
LINE
  5
3FC
330
1F
100
AcDbEntity
  8
0
  6
Continuous
 62
     7
370
    25
100
AcDbLine
 10
50.5000000006
 20
671.5
 30
0.0
 11
40.5000000006
 21
671.5
 31
0.0
  0
LINE
  5
3FD
330
1F
100
AcDbEntity
  8
0
  6
Continuous
 62
     7
370
    25
100
AcDbLine
 10
27.5000000006
 20
671.5
 30
0.0
 11
27.5000000006
 21
668.5
 31
0.0
  0
LINE
  5
3FE
330
1F
100
AcDbEntity
  8
0
  6
Continuous
 62
     7
370
    25
100
AcDbLine
 10
27.5000000006
 20
668.5
 30
0.0
 11
37.5000000006
 21
668.5
 31
0.0
  0
LINE
  5
3FF
330
1F
100
AcDbEntity
  8
0
  6
Continuous
 62
     7
370
    25
100
AcDbLine
 10
37.5000000006
 20
668.5
 30
0.0
 11
37.5000000006
 21
671.5
 31
0.0
  0
LINE
  5
400
330
1F
100
AcDbEntity
  8
0
  6
Continuous
 62
     7
370
    25
100
AcDbLine
 10
37.5000000006
 20
671.5
 30
0.0
 11
27.5000000006
 21
671.5
 31
0.0
  0
LINE
  5
401
330
1F
100
AcDbEntity
  8
0
  6
Continuous
 62
     7
370
    25
100
AcDbLine
 10
14.5000000006
 20
671.5
 30
0.0
 11
14.5000000006
 21
668.5
 31
0.0
  0
LINE
  5
402
330
1F
100
AcDbEntity
  8
0
  6
Continuous
 62
     7
370
    25
100
AcDbLine
 10
14.5000000006
 20
668.5
 30
0.0
 11
24.5000000006
 21
668.5
 31
0.0
  0
LINE
  5
403
330
1F
100
AcDbEntity
  8
0
  6
Continuous
 62
     7
370
    25
100
AcDbLine
 10
24.5000000006
 20
668.5
 30
0.0
 11
24.5000000006
 21
671.5
 31
0.0
  0
LINE
  5
404
330
1F
100
AcDbEntity
  8
0
  6
Continuous
 62
     7
370
    25
100
AcDbLine
 10
24.5000000006
 20
671.5
 30
0.0
 11
14.5000000006
 21
671.5
 31
0.0
  0
LINE
  5
405
330
1F
100
AcDbEntity
  8
0
  6
Continuous
 62
     7
370
    25
100
AcDbLine
 10
79.5000000006
 20
681.5
 30
0.0
 11
79.5000000006
 21
678.5
 31
0.0
  0
LINE
  5
406
330
1F
100
AcDbEntity
  8
0
  6
Continuous
 62
     7
370
    25
100
AcDbLine
 10
79.5000000006
 20
678.5
 30
0.0
 11
89.5000000006
 21
678.5
 31
0.0
  0
LINE
  5
407
330
1F
100
AcDbEntity
  8
0
  6
Continuous
 62
     7
370
    25
100
AcDbLine
 10
89.5000000006
 20
678.5
 30
0.0
 11
89.5000000006
 21
681.5
 31
0.0
  0
LINE
  5
408
330
1F
100
AcDbEntity
  8
0
  6
Continuous
 62
     7
370
    25
100
AcDbLine
 10
89.5000000006
 20
681.5
 30
0.0
 11
79.5000000006
 21
681.5
 31
0.0
  0
LINE
  5
409
330
1F
100
AcDbEntity
  8
0
  6
Continuous
 62
     7
370
    25
100
AcDbLine
 10
1.5000000006
 20
671.5
 30
0.0
 11
1.5000000006
 21
668.5
 31
0.0
  0
LINE
  5
40A
330
1F
100
AcDbEntity
  8
0
  6
Continuous
 62
     7
370
    25
100
AcDbLine
 10
1.5000000006
 20
668.5
 30
0.0
 11
11.5000000006
 21
668.5
 31
0.0
  0
LINE
  5
40B
330
1F
100
AcDbEntity
  8
0
  6
Continuous
 62
     7
370
    25
100
AcDbLine
 10
11.5000000006
 20
668.5
 30
0.0
 11
11.5000000006
 21
671.5
 31
0.0
  0
LINE
  5
40C
330
1F
100
AcDbEntity
  8
0
  6
Continuous
 62
     7
370
    25
100
AcDbLine
 10
11.5000000006
 20
671.5
 30
0.0
 11
1.5000000006
 21
671.5
 31
0.0
  0
LINE
  5
40D
330
1F
100
AcDbEntity
  8
0
  6
Continuous
 62
     7
370
    25
100
AcDbLine
 10
1.5000000006
 20
681.5
 30
0.0
 11
1.5000000006
 21
678.5
 31
0.0
  0
LINE
  5
40E
330
1F
100
AcDbEntity
  8
0
  6
Continuous
 62
     7
370
    25
100
AcDbLine
 10
1.5000000006
 20
678.5
 30
0.0
 11
11.5000000006
 21
678.5
 31
0.0
  0
LINE
  5
40F
330
1F
100
AcDbEntity
  8
0
  6
Continuous
 62
     7
370
    25
100
AcDbLine
 10
11.5000000006
 20
678.5
 30
0.0
 11
11.5000000006
 21
681.5
 31
0.0
  0
LINE
  5
410
330
1F
100
AcDbEntity
  8
0
  6
Continuous
 62
     7
370
    25
100
AcDbLine
 10
11.5000000006
 20
681.5
 30
0.0
 11
1.5000000006
 21
681.5
 31
0.0
  0
LINE
  5
411
330
1F
100
AcDbEntity
  8
0
  6
Continuous
 62
     7
370
    25
100
AcDbLine
 10
1.5000000006
 20
691.5
 30
0.0
 11
1.5000000006
 21
688.5
 31
0.0
  0
LINE
  5
412
330
1F
100
AcDbEntity
  8
0
  6
Continuous
 62
     7
370
    25
100
AcDbLine
 10
1.5000000006
 20
688.5
 30
0.0
 11
11.5000000006
 21
688.5
 31
0.0
  0
LINE
  5
413
330
1F
100
AcDbEntity
  8
0
  6
Continuous
 62
     7
370
    25
100
AcDbLine
 10
11.5000000006
 20
688.5
 30
0.0
 11
11.5000000006
 21
691.5
 31
0.0
  0
LINE
  5
414
330
1F
100
AcDbEntity
  8
0
  6
Continuous
 62
     7
370
    25
100
AcDbLine
 10
11.5000000006
 20
691.5
 30
0.0
 11
1.5000000006
 21
691.5
 31
0.0
  0
LINE
  5
415
330
1F
100
AcDbEntity
  8
0
  6
Continuous
 62
     7
370
    25
100
AcDbLine
 10
1.5000000006
 20
701.5
 30
0.0
 11
1.5000000006
 21
698.5
 31
0.0
  0
LINE
  5
416
330
1F
100
AcDbEntity
  8
0
  6
Continuous
 62
     7
370
    25
100
AcDbLine
 10
1.5000000006
 20
698.5
 30
0.0
 11
11.5000000006
 21
698.5
 31
0.0
  0
LINE
  5
417
330
1F
100
AcDbEntity
  8
0
  6
Continuous
 62
     7
370
    25
100
AcDbLine
 10
11.5000000006
 20
698.5
 30
0.0
 11
11.5000000006
 21
701.5
 31
0.0
  0
LINE
  5
418
330
1F
100
AcDbEntity
  8
0
  6
Continuous
 62
     7
370
    25
100
AcDbLine
 10
11.5000000006
 20
701.5
 30
0.0
 11
1.5000000006
 21
701.5
 31
0.0
  0
LINE
  5
419
330
1F
100
AcDbEntity
  8
0
  6
Continuous
 62
     7
370
    25
100
AcDbLine
 10
66.5000000006
 20
661.5
 30
0.0
 11
66.5000000006
 21
658.5
 31
0.0
  0
LINE
  5
41A
330
1F
100
AcDbEntity
  8
0
  6
Continuous
 62
     7
370
    25
100
AcDbLine
 10
66.5000000006
 20
658.5
 30
0.0
 11
76.5000000006
 21
658.5
 31
0.0
  0
LINE
  5
41B
330
1F
100
AcDbEntity
  8
0
  6
Continuous
 62
     7
370
    25
100
AcDbLine
 10
76.5000000006
 20
658.5
 30
0.0
 11
76.5000000006
 21
661.5
 31
0.0
  0
LINE
  5
41C
330
1F
100
AcDbEntity
  8
0
  6
Continuous
 62
     7
370
    25
100
AcDbLine
 10
76.5000000006
 20
661.5
 30
0.0
 11
66.5000000006
 21
661.5
 31
0.0
  0
LINE
  5
41D
330
1F
100
AcDbEntity
  8
0
  6
Continuous
 62
     7
370
    25
100
AcDbLine
 10
79.5000000006
 20
661.5
 30
0.0
 11
79.5000000006
 21
658.5
 31
0.0
  0
LINE
  5
41E
330
1F
100
AcDbEntity
  8
0
  6
Continuous
 62
     7
370
    25
100
AcDbLine
 10
79.5000000006
 20
658.5
 30
0.0
 11
89.5000000006
 21
658.5
 31
0.0
  0
LINE
  5
41F
330
1F
100
AcDbEntity
  8
0
  6
Continuous
 62
     7
370
    25
100
AcDbLine
 10
89.5000000006
 20
658.5
 30
0.0
 11
89.5000000006
 21
661.5
 31
0.0
  0
LINE
  5
420
330
1F
100
AcDbEntity
  8
0
  6
Continuous
 62
     7
370
    25
100
AcDbLine
 10
89.5000000006
 20
661.5
 30
0.0
 11
79.5000000006
 21
661.5
 31
0.0
  0
LINE
  5
421
330
1F
100
AcDbEntity
  8
0
  6
Continuous
 62
     7
370
    25
100
AcDbLine
 10
92.5000000006
 20
661.5
 30
0.0
 11
92.5000000006
 21
658.5
 31
0.0
  0
LINE
  5
422
330
1F
100
AcDbEntity
  8
0
  6
Continuous
 62
     7
370
    25
100
AcDbLine
 10
92.5000000006
 20
658.5
 30
0.0
 11
102.5000000006
 21
658.5
 31
0.0
  0
LINE
  5
423
330
1F
100
AcDbEntity
  8
0
  6
Continuous
 62
     7
370
    25
100
AcDbLine
 10
102.5000000006
 20
658.5
 30
0.0
 11
102.5000000006
 21
661.5
 31
0.0
  0
LINE
  5
424
330
1F
100
AcDbEntity
  8
0
  6
Continuous
 62
     7
370
    25
100
AcDbLine
 10
102.5000000006
 20
661.5
 30
0.0
 11
92.5000000006
 21
661.5
 31
0.0
  0
LINE
  5
425
330
1F
100
AcDbEntity
  8
0
  6
Continuous
 62
     7
370
    25
100
AcDbLine
 10
1.5000000006
 20
711.5
 30
0.0
 11
1.5000000006
 21
708.5
 31
0.0
  0
LINE
  5
426
330
1F
100
AcDbEntity
  8
0
  6
Continuous
 62
     7
370
    25
100
AcDbLine
 10
1.5000000006
 20
708.5
 30
0.0
 11
11.5000000006
 21
708.5
 31
0.0
  0
LINE
  5
427
330
1F
100
AcDbEntity
  8
0
  6
Continuous
 62
     7
370
    25
100
AcDbLine
 10
11.5000000006
 20
708.5
 30
0.0
 11
11.5000000006
 21
711.5
 31
0.0
  0
LINE
  5
428
330
1F
100
AcDbEntity
  8
0
  6
Continuous
 62
     7
370
    25
100
AcDbLine
 10
11.5000000006
 20
711.5
 30
0.0
 11
1.5000000006
 21
711.5
 31
0.0
  0
LINE
  5
429
330
1F
100
AcDbEntity
  8
0
  6
Continuous
 62
     7
370
    25
100
AcDbLine
 10
-89.4999999994
 20
658.5
 30
0.0
 11
-79.4999999994
 21
658.5
 31
0.0
  0
LINE
  5
42A
330
1F
100
AcDbEntity
  8
0
  6
Continuous
 62
     7
370
    25
100
AcDbLine
 10
-79.4999999994
 20
658.5
 30
0.0
 11
-79.4999999994
 21
661.5
 31
0.0
  0
LINE
  5
42B
330
1F
100
AcDbEntity
  8
0
  6
Continuous
 62
     7
370
    25
100
AcDbLine
 10
-79.4999999994
 20
661.5
 30
0.0
 11
-89.4999999994
 21
661.5
 31
0.0
  0
LINE
  5
42C
330
1F
100
AcDbEntity
  8
0
  6
Continuous
 62
     7
370
    25
100
AcDbLine
 10
-89.4999999994
 20
661.5
 30
0.0
 11
-89.4999999994
 21
658.5
 31
0.0
  0
LINE
  5
42D
330
1F
100
AcDbEntity
  8
0
  6
Continuous
 62
     7
370
    25
100
AcDbLine
 10
-102.4999999994
 20
658.5
 30
0.0
 11
-92.4999999994
 21
658.5
 31
0.0
  0
LINE
  5
42E
330
1F
100
AcDbEntity
  8
0
  6
Continuous
 62
     7
370
    25
100
AcDbLine
 10
-92.4999999994
 20
658.5
 30
0.0
 11
-92.4999999994
 21
661.5
 31
0.0
  0
LINE
  5
42F
330
1F
100
AcDbEntity
  8
0
  6
Continuous
 62
     7
370
    25
100
AcDbLine
 10
-92.4999999994
 20
661.5
 30
0.0
 11
-102.4999999994
 21
661.5
 31
0.0
  0
LINE
  5
430
330
1F
100
AcDbEntity
  8
0
  6
Continuous
 62
     7
370
    25
100
AcDbLine
 10
-102.4999999994
 20
661.5
 30
0.0
 11
-102.4999999994
 21
658.5
 31
0.0
  0
LINE
  5
431
330
1F
100
AcDbEntity
  8
0
  6
Continuous
 62
     7
370
    25
100
AcDbLine
 10
-11.4999999994
 20
708.5
 30
0.0
 11
-1.4999999994
 21
708.5
 31
0.0
  0
LINE
  5
432
330
1F
100
AcDbEntity
  8
0
  6
Continuous
 62
     7
370
    25
100
AcDbLine
 10
-1.4999999994
 20
708.5
 30
0.0
 11
-1.4999999994
 21
711.5
 31
0.0
  0
LINE
  5
433
330
1F
100
AcDbEntity
  8
0
  6
Continuous
 62
     7
370
    25
100
AcDbLine
 10
-1.4999999994
 20
711.5
 30
0.0
 11
-11.4999999994
 21
711.5
 31
0.0
  0
LINE
  5
434
330
1F
100
AcDbEntity
  8
0
  6
Continuous
 62
     7
370
    25
100
AcDbLine
 10
-11.4999999994
 20
711.5
 30
0.0
 11
-11.4999999994
 21
708.5
 31
0.0
  0
LINE
  5
435
330
1F
100
AcDbEntity
  8
0
  6
Continuous
 62
     7
370
    25
100
AcDbLine
 10
-11.4999999994
 20
698.5
 30
0.0
 11
-1.4999999994
 21
698.5
 31
0.0
  0
LINE
  5
436
330
1F
100
AcDbEntity
  8
0
  6
Continuous
 62
     7
370
    25
100
AcDbLine
 10
-1.4999999994
 20
698.5
 30
0.0
 11
-1.4999999994
 21
701.5
 31
0.0
  0
LINE
  5
437
330
1F
100
AcDbEntity
  8
0
  6
Continuous
 62
     7
370
    25
100
AcDbLine
 10
-1.4999999994
 20
701.5
 30
0.0
 11
-11.4999999994
 21
701.5
 31
0.0
  0
LINE
  5
438
330
1F
100
AcDbEntity
  8
0
  6
Continuous
 62
     7
370
    25
100
AcDbLine
 10
-11.4999999994
 20
701.5
 30
0.0
 11
-11.4999999994
 21
698.5
 31
0.0
  0
LINE
  5
439
330
1F
100
AcDbEntity
  8
0
  6
Continuous
 62
     7
370
    25
100
AcDbLine
 10
-11.4999999994
 20
688.5
 30
0.0
 11
-1.4999999994
 21
688.5
 31
0.0
  0
LINE
  5
43A
330
1F
100
AcDbEntity
  8
0
  6
Continuous
 62
     7
370
    25
100
AcDbLine
 10
-1.4999999994
 20
688.5
 30
0.0
 11
-1.4999999994
 21
691.5
 31
0.0
  0
LINE
  5
43B
330
1F
100
AcDbEntity
  8
0
  6
Continuous
 62
     7
370
    25
100
AcDbLine
 10
-1.4999999994
 20
691.5
 30
0.0
 11
-11.4999999994
 21
691.5
 31
0.0
  0
LINE
  5
43C
330
1F
100
AcDbEntity
  8
0
  6
Continuous
 62
     7
370
    25
100
AcDbLine
 10
-11.4999999994
 20
691.5
 30
0.0
 11
-11.4999999994
 21
688.5
 31
0.0
  0
LINE
  5
43D
330
1F
100
AcDbEntity
  8
0
  6
Continuous
 62
     7
370
    25
100
AcDbLine
 10
-11.4999999994
 20
678.5
 30
0.0
 11
-1.4999999994
 21
678.5
 31
0.0
  0
LINE
  5
43E
330
1F
100
AcDbEntity
  8
0
  6
Continuous
 62
     7
370
    25
100
AcDbLine
 10
-1.4999999994
 20
678.5
 30
0.0
 11
-1.4999999994
 21
681.5
 31
0.0
  0
LINE
  5
43F
330
1F
100
AcDbEntity
  8
0
  6
Continuous
 62
     7
370
    25
100
AcDbLine
 10
-1.4999999994
 20
681.5
 30
0.0
 11
-11.4999999994
 21
681.5
 31
0.0
  0
LINE
  5
440
330
1F
100
AcDbEntity
  8
0
  6
Continuous
 62
     7
370
    25
100
AcDbLine
 10
-11.4999999994
 20
681.5
 30
0.0
 11
-11.4999999994
 21
678.5
 31
0.0
  0
LINE
  5
441
330
1F
100
AcDbEntity
  8
0
  6
Continuous
 62
     7
370
    25
100
AcDbLine
 10
-11.4999999994
 20
668.5
 30
0.0
 11
-1.4999999994
 21
668.5
 31
0.0
  0
LINE
  5
442
330
1F
100
AcDbEntity
  8
0
  6
Continuous
 62
     7
370
    25
100
AcDbLine
 10
-1.4999999994
 20
668.5
 30
0.0
 11
-1.4999999994
 21
671.5
 31
0.0
  0
LINE
  5
443
330
1F
100
AcDbEntity
  8
0
  6
Continuous
 62
     7
370
    25
100
AcDbLine
 10
-1.4999999994
 20
671.5
 30
0.0
 11
-11.4999999994
 21
671.5
 31
0.0
  0
LINE
  5
444
330
1F
100
AcDbEntity
  8
0
  6
Continuous
 62
     7
370
    25
100
AcDbLine
 10
-11.4999999994
 20
671.5
 30
0.0
 11
-11.4999999994
 21
668.5
 31
0.0
  0
LINE
  5
445
330
1F
100
AcDbEntity
  8
0
  6
Continuous
 62
     7
370
    25
100
AcDbLine
 10
-11.4999999994
 20
658.5
 30
0.0
 11
-1.4999999994
 21
658.5
 31
0.0
  0
LINE
  5
446
330
1F
100
AcDbEntity
  8
0
  6
Continuous
 62
     7
370
    25
100
AcDbLine
 10
-1.4999999994
 20
658.5
 30
0.0
 11
-1.4999999994
 21
661.5
 31
0.0
  0
LINE
  5
447
330
1F
100
AcDbEntity
  8
0
  6
Continuous
 62
     7
370
    25
100
AcDbLine
 10
-1.4999999994
 20
661.5
 30
0.0
 11
-11.4999999994
 21
661.5
 31
0.0
  0
LINE
  5
448
330
1F
100
AcDbEntity
  8
0
  6
Continuous
 62
     7
370
    25
100
AcDbLine
 10
-11.4999999994
 20
661.5
 30
0.0
 11
-11.4999999994
 21
658.5
 31
0.0
  0
LINE
  5
449
330
1F
100
AcDbEntity
  8
0
  6
Continuous
 62
     7
370
    25
100
AcDbLine
 10
-51.4999999994
 20
646.5
 30
0.0
 11
-1.4999999994
 21
646.5
 31
0.0
  0
LINE
  5
44A
330
1F
100
AcDbEntity
  8
0
  6
Continuous
 62
     7
370
    25
100
AcDbLine
 10
-1.4999999994
 20
646.5
 30
0.0
 11
-1.4999999994
 21
651.5
 31
0.0
  0
LINE
  5
44B
330
1F
100
AcDbEntity
  8
0
  6
Continuous
 62
     7
370
    25
100
AcDbLine
 10
-1.4999999994
 20
651.5
 30
0.0
 11
-51.4999999994
 21
651.5
 31
0.0
  0
LINE
  5
44C
330
1F
100
AcDbEntity
  8
0
  6
Continuous
 62
     7
370
    25
100
AcDbLine
 10
-51.4999999994
 20
651.5
 30
0.0
 11
-51.4999999994
 21
646.5
 31
0.0
  0
LINE
  5
44D
330
1F
100
AcDbEntity
  8
0
  6
Continuous
 62
     7
370
    25
100
AcDbLine
 10
1.5000000006
 20
651.5
 30
0.0
 11
1.5000000006
 21
646.5
 31
0.0
  0
LINE
  5
44E
330
1F
100
AcDbEntity
  8
0
  6
Continuous
 62
     7
370
    25
100
AcDbLine
 10
1.5000000006
 20
646.5
 30
0.0
 11
51.5000000006
 21
646.5
 31
0.0
  0
LINE
  5
44F
330
1F
100
AcDbEntity
  8
0
  6
Continuous
 62
     7
370
    25
100
AcDbLine
 10
51.5000000006
 20
646.5
 30
0.0
 11
51.5000000006
 21
651.5
 31
0.0
  0
LINE
  5
450
330
1F
100
AcDbEntity
  8
0
  6
Continuous
 62
     7
370
    25
100
AcDbLine
 10
51.5000000006
 20
651.5
 30
0.0
 11
1.5000000006
 21
651.5
 31
0.0
  0
LINE
  5
451
330
1F
100
AcDbEntity
  8
0
  6
Continuous
 62
     7
370
    25
100
AcDbLine
 10
84.5000000006
 20
651.5
 30
0.0
 11
84.5000000006
 21
646.5
 31
0.0
  0
LINE
  5
452
330
1F
100
AcDbEntity
  8
0
  6
Continuous
 62
     7
370
    25
100
AcDbLine
 10
84.5000000006
 20
646.5
 30
0.0
 11
134.5000000006
 21
646.5
 31
0.0
  0
LINE
  5
453
330
1F
100
AcDbEntity
  8
0
  6
Continuous
 62
     7
370
    25
100
AcDbLine
 10
134.5000000006
 20
646.5
 30
0.0
 11
134.5000000006
 21
651.5
 31
0.0
  0
LINE
  5
454
330
1F
100
AcDbEntity
  8
0
  6
Continuous
 62
     7
370
    25
100
AcDbLine
 10
134.5000000006
 20
651.5
 30
0.0
 11
84.5000000006
 21
651.5
 31
0.0
  0
LINE
  5
455
330
1F
100
AcDbEntity
  8
0
  6
Continuous
 62
     7
370
    25
100
AcDbLine
 10
84.5000000006
 20
631.5
 30
0.0
 11
84.5000000006
 21
626.5
 31
0.0
  0
LINE
  5
456
330
1F
100
AcDbEntity
  8
0
  6
Continuous
 62
     7
370
    25
100
AcDbLine
 10
84.5000000006
 20
626.5
 30
0.0
 11
134.5000000006
 21
626.5
 31
0.0
  0
LINE
  5
457
330
1F
100
AcDbEntity
  8
0
  6
Continuous
 62
     7
370
    25
100
AcDbLine
 10
134.5000000006
 20
626.5
 30
0.0
 11
134.5000000006
 21
631.5
 31
0.0
  0
LINE
  5
458
330
1F
100
AcDbEntity
  8
0
  6
Continuous
 62
     7
370
    25
100
AcDbLine
 10
134.5000000006
 20
631.5
 30
0.0
 11
84.5000000006
 21
631.5
 31
0.0
  0
LINE
  5
459
330
1F
100
AcDbEntity
  8
0
  6
Continuous
 62
     7
370
    25
100
AcDbLine
 10
84.5000000006
 20
611.5
 30
0.0
 11
84.5000000006
 21
606.5
 31
0.0
  0
LINE
  5
45A
330
1F
100
AcDbEntity
  8
0
  6
Continuous
 62
     7
370
    25
100
AcDbLine
 10
84.5000000006
 20
606.5
 30
0.0
 11
134.5000000006
 21
606.5
 31
0.0
  0
LINE
  5
45B
330
1F
100
AcDbEntity
  8
0
  6
Continuous
 62
     7
370
    25
100
AcDbLine
 10
134.5000000006
 20
606.5
 30
0.0
 11
134.5000000006
 21
611.5
 31
0.0
  0
LINE
  5
45C
330
1F
100
AcDbEntity
  8
0
  6
Continuous
 62
     7
370
    25
100
AcDbLine
 10
134.5000000006
 20
611.5
 30
0.0
 11
84.5000000006
 21
611.5
 31
0.0
  0
LINE
  5
45D
330
1F
100
AcDbEntity
  8
0
  6
Continuous
 62
     7
370
    25
100
AcDbLine
 10
84.5000000006
 20
591.5
 30
0.0
 11
84.5000000006
 21
586.5
 31
0.0
  0
LINE
  5
45E
330
1F
100
AcDbEntity
  8
0
  6
Continuous
 62
     7
370
    25
100
AcDbLine
 10
84.5000000006
 20
586.5
 30
0.0
 11
134.5000000006
 21
586.5
 31
0.0
  0
LINE
  5
45F
330
1F
100
AcDbEntity
  8
0
  6
Continuous
 62
     7
370
    25
100
AcDbLine
 10
134.5000000006
 20
586.5
 30
0.0
 11
134.5000000006
 21
591.5
 31
0.0
  0
LINE
  5
460
330
1F
100
AcDbEntity
  8
0
  6
Continuous
 62
     7
370
    25
100
AcDbLine
 10
134.5000000006
 20
591.5
 30
0.0
 11
84.5000000006
 21
591.5
 31
0.0
  0
LINE
  5
461
330
1F
100
AcDbEntity
  8
0
  6
Continuous
 62
     7
370
    25
100
AcDbLine
 10
84.5000000006
 20
571.5
 30
0.0
 11
84.5000000006
 21
566.5
 31
0.0
  0
LINE
  5
462
330
1F
100
AcDbEntity
  8
0
  6
Continuous
 62
     7
370
    25
100
AcDbLine
 10
84.5000000006
 20
566.5
 30
0.0
 11
134.5000000006
 21
566.5
 31
0.0
  0
LINE
  5
463
330
1F
100
AcDbEntity
  8
0
  6
Continuous
 62
     7
370
    25
100
AcDbLine
 10
134.5000000006
 20
566.5
 30
0.0
 11
134.5000000006
 21
571.5
 31
0.0
  0
LINE
  5
464
330
1F
100
AcDbEntity
  8
0
  6
Continuous
 62
     7
370
    25
100
AcDbLine
 10
134.5000000006
 20
571.5
 30
0.0
 11
84.5000000006
 21
571.5
 31
0.0
  0
LINE
  5
465
330
1F
100
AcDbEntity
  8
0
  6
Continuous
 62
     7
370
    25
100
AcDbLine
 10
167.5000000006
 20
571.5
 30
0.0
 11
167.5000000006
 21
566.5
 31
0.0
  0
LINE
  5
466
330
1F
100
AcDbEntity
  8
0
  6
Continuous
 62
     7
370
    25
100
AcDbLine
 10
167.5000000006
 20
566.5
 30
0.0
 11
217.5000000006
 21
566.5
 31
0.0
  0
LINE
  5
467
330
1F
100
AcDbEntity
  8
0
  6
Continuous
 62
     7
370
    25
100
AcDbLine
 10
217.5000000006
 20
566.5
 30
0.0
 11
217.5000000006
 21
571.5
 31
0.0
  0
LINE
  5
468
330
1F
100
AcDbEntity
  8
0
  6
Continuous
 62
     7
370
    25
100
AcDbLine
 10
217.5000000006
 20
571.5
 30
0.0
 11
167.5000000006
 21
571.5
 31
0.0
  0
LINE
  5
469
330
1F
100
AcDbEntity
  8
0
  6
Continuous
 62
     7
370
    25
100
AcDbLine
 10
84.5000000006
 20
551.5
 30
0.0
 11
84.5000000006
 21
546.5
 31
0.0
  0
LINE
  5
46A
330
1F
100
AcDbEntity
  8
0
  6
Continuous
 62
     7
370
    25
100
AcDbLine
 10
84.5000000006
 20
546.5
 30
0.0
 11
134.5000000006
 21
546.5
 31
0.0
  0
LINE
  5
46B
330
1F
100
AcDbEntity
  8
0
  6
Continuous
 62
     7
370
    25
100
AcDbLine
 10
134.5000000006
 20
546.5
 30
0.0
 11
134.5000000006
 21
551.5
 31
0.0
  0
LINE
  5
46C
330
1F
100
AcDbEntity
  8
0
  6
Continuous
 62
     7
370
    25
100
AcDbLine
 10
134.5000000006
 20
551.5
 30
0.0
 11
84.5000000006
 21
551.5
 31
0.0
  0
LINE
  5
46D
330
1F
100
AcDbEntity
  8
0
  6
Continuous
 62
     7
370
    25
100
AcDbLine
 10
167.5000000006
 20
551.5
 30
0.0
 11
167.5000000006
 21
546.5
 31
0.0
  0
LINE
  5
46E
330
1F
100
AcDbEntity
  8
0
  6
Continuous
 62
     7
370
    25
100
AcDbLine
 10
167.5000000006
 20
546.5
 30
0.0
 11
217.5000000006
 21
546.5
 31
0.0
  0
LINE
  5
46F
330
1F
100
AcDbEntity
  8
0
  6
Continuous
 62
     7
370
    25
100
AcDbLine
 10
217.5000000006
 20
546.5
 30
0.0
 11
217.5000000006
 21
551.5
 31
0.0
  0
LINE
  5
470
330
1F
100
AcDbEntity
  8
0
  6
Continuous
 62
     7
370
    25
100
AcDbLine
 10
217.5000000006
 20
551.5
 30
0.0
 11
167.5000000006
 21
551.5
 31
0.0
  0
LINE
  5
471
330
1F
100
AcDbEntity
  8
0
  6
Continuous
 62
     7
370
    25
100
AcDbLine
 10
84.5000000006
 20
531.5
 30
0.0
 11
84.5000000006
 21
526.5
 31
0.0
  0
LINE
  5
472
330
1F
100
AcDbEntity
  8
0
  6
Continuous
 62
     7
370
    25
100
AcDbLine
 10
84.5000000006
 20
526.5
 30
0.0
 11
134.5000000006
 21
526.5
 31
0.0
  0
LINE
  5
473
330
1F
100
AcDbEntity
  8
0
  6
Continuous
 62
     7
370
    25
100
AcDbLine
 10
134.5000000006
 20
526.5
 30
0.0
 11
134.5000000006
 21
531.5
 31
0.0
  0
LINE
  5
474
330
1F
100
AcDbEntity
  8
0
  6
Continuous
 62
     7
370
    25
100
AcDbLine
 10
134.5000000006
 20
531.5
 30
0.0
 11
84.5000000006
 21
531.5
 31
0.0
  0
LINE
  5
475
330
1F
100
AcDbEntity
  8
0
  6
Continuous
 62
     7
370
    25
100
AcDbLine
 10
167.5000000006
 20
531.5
 30
0.0
 11
167.5000000006
 21
526.5
 31
0.0
  0
LINE
  5
476
330
1F
100
AcDbEntity
  8
0
  6
Continuous
 62
     7
370
    25
100
AcDbLine
 10
167.5000000006
 20
526.5
 30
0.0
 11
217.5000000006
 21
526.5
 31
0.0
  0
LINE
  5
477
330
1F
100
AcDbEntity
  8
0
  6
Continuous
 62
     7
370
    25
100
AcDbLine
 10
217.5000000006
 20
526.5
 30
0.0
 11
217.5000000006
 21
531.5
 31
0.0
  0
LINE
  5
478
330
1F
100
AcDbEntity
  8
0
  6
Continuous
 62
     7
370
    25
100
AcDbLine
 10
217.5000000006
 20
531.5
 30
0.0
 11
167.5000000006
 21
531.5
 31
0.0
  0
LINE
  5
479
330
1F
100
AcDbEntity
  8
0
  6
Continuous
 62
     7
370
    25
100
AcDbLine
 10
84.5000000006
 20
511.5
 30
0.0
 11
84.5000000006
 21
506.5
 31
0.0
  0
LINE
  5
47A
330
1F
100
AcDbEntity
  8
0
  6
Continuous
 62
     7
370
    25
100
AcDbLine
 10
84.5000000006
 20
506.5
 30
0.0
 11
134.5000000006
 21
506.5
 31
0.0
  0
LINE
  5
47B
330
1F
100
AcDbEntity
  8
0
  6
Continuous
 62
     7
370
    25
100
AcDbLine
 10
134.5000000006
 20
506.5
 30
0.0
 11
134.5000000006
 21
511.5
 31
0.0
  0
LINE
  5
47C
330
1F
100
AcDbEntity
  8
0
  6
Continuous
 62
     7
370
    25
100
AcDbLine
 10
134.5000000006
 20
511.5
 30
0.0
 11
84.5000000006
 21
511.5
 31
0.0
  0
LINE
  5
47D
330
1F
100
AcDbEntity
  8
0
  6
Continuous
 62
     7
370
    25
100
AcDbLine
 10
167.5000000006
 20
511.5
 30
0.0
 11
167.5000000006
 21
506.5
 31
0.0
  0
LINE
  5
47E
330
1F
100
AcDbEntity
  8
0
  6
Continuous
 62
     7
370
    25
100
AcDbLine
 10
167.5000000006
 20
506.5
 30
0.0
 11
217.5000000006
 21
506.5
 31
0.0
  0
LINE
  5
47F
330
1F
100
AcDbEntity
  8
0
  6
Continuous
 62
     7
370
    25
100
AcDbLine
 10
217.5000000006
 20
506.5
 30
0.0
 11
217.5000000006
 21
511.5
 31
0.0
  0
LINE
  5
480
330
1F
100
AcDbEntity
  8
0
  6
Continuous
 62
     7
370
    25
100
AcDbLine
 10
217.5000000006
 20
511.5
 30
0.0
 11
167.5000000006
 21
511.5
 31
0.0
  0
LINE
  5
481
330
1F
100
AcDbEntity
  8
0
  6
Continuous
 62
     7
370
    25
100
AcDbLine
 10
-300.4999999994
 20
446.5
 30
0.0
 11
-250.4999999994
 21
446.5
 31
0.0
  0
LINE
  5
482
330
1F
100
AcDbEntity
  8
0
  6
Continuous
 62
     7
370
    25
100
AcDbLine
 10
-250.4999999994
 20
446.5
 30
0.0
 11
-250.4999999994
 21
451.5
 31
0.0
  0
LINE
  5
483
330
1F
100
AcDbEntity
  8
0
  6
Continuous
 62
     7
370
    25
100
AcDbLine
 10
-250.4999999994
 20
451.5
 30
0.0
 11
-300.4999999994
 21
451.5
 31
0.0
  0
LINE
  5
484
330
1F
100
AcDbEntity
  8
0
  6
Continuous
 62
     7
370
    25
100
AcDbLine
 10
-300.4999999994
 20
451.5
 30
0.0
 11
-300.4999999994
 21
446.5
 31
0.0
  0
LINE
  5
485
330
1F
100
AcDbEntity
  8
0
  6
Continuous
 62
     7
370
    25
100
AcDbLine
 10
-134.4999999994
 20
426.5
 30
0.0
 11
-84.4999999994
 21
426.5
 31
0.0
  0
LINE
  5
486
330
1F
100
AcDbEntity
  8
0
  6
Continuous
 62
     7
370
    25
100
AcDbLine
 10
-84.4999999994
 20
426.5
 30
0.0
 11
-84.4999999994
 21
431.5
 31
0.0
  0
LINE
  5
487
330
1F
100
AcDbEntity
  8
0
  6
Continuous
 62
     7
370
    25
100
AcDbLine
 10
-84.4999999994
 20
431.5
 30
0.0
 11
-134.4999999994
 21
431.5
 31
0.0
  0
LINE
  5
488
330
1F
100
AcDbEntity
  8
0
  6
Continuous
 62
     7
370
    25
100
AcDbLine
 10
-134.4999999994
 20
431.5
 30
0.0
 11
-134.4999999994
 21
426.5
 31
0.0
  0
LINE
  5
489
330
1F
100
AcDbEntity
  8
0
  6
Continuous
 62
     7
370
    25
100
AcDbLine
 10
-217.4999999994
 20
426.5
 30
0.0
 11
-167.4999999994
 21
426.5
 31
0.0
  0
LINE
  5
48A
330
1F
100
AcDbEntity
  8
0
  6
Continuous
 62
     7
370
    25
100
AcDbLine
 10
-167.4999999994
 20
426.5
 30
0.0
 11
-167.4999999994
 21
431.5
 31
0.0
  0
LINE
  5
48B
330
1F
100
AcDbEntity
  8
0
  6
Continuous
 62
     7
370
    25
100
AcDbLine
 10
-167.4999999994
 20
431.5
 30
0.0
 11
-217.4999999994
 21
431.5
 31
0.0
  0
LINE
  5
48C
330
1F
100
AcDbEntity
  8
0
  6
Continuous
 62
     7
370
    25
100
AcDbLine
 10
-217.4999999994
 20
431.5
 30
0.0
 11
-217.4999999994
 21
426.5
 31
0.0
  0
LINE
  5
48D
330
1F
100
AcDbEntity
  8
0
  6
Continuous
 62
     7
370
    25
100
AcDbLine
 10
-300.4999999994
 20
426.5
 30
0.0
 11
-250.4999999994
 21
426.5
 31
0.0
  0
LINE
  5
48E
330
1F
100
AcDbEntity
  8
0
  6
Continuous
 62
     7
370
    25
100
AcDbLine
 10
-250.4999999994
 20
426.5
 30
0.0
 11
-250.4999999994
 21
431.5
 31
0.0
  0
LINE
  5
48F
330
1F
100
AcDbEntity
  8
0
  6
Continuous
 62
     7
370
    25
100
AcDbLine
 10
-250.4999999994
 20
431.5
 30
0.0
 11
-300.4999999994
 21
431.5
 31
0.0
  0
LINE
  5
490
330
1F
100
AcDbEntity
  8
0
  6
Continuous
 62
     7
370
    25
100
AcDbLine
 10
-300.4999999994
 20
431.5
 30
0.0
 11
-300.4999999994
 21
426.5
 31
0.0
  0
LINE
  5
491
330
1F
100
AcDbEntity
  8
0
  6
Continuous
 62
     7
370
    25
100
AcDbLine
 10
-217.4999999994
 20
446.5
 30
0.0
 11
-167.4999999994
 21
446.5
 31
0.0
  0
LINE
  5
492
330
1F
100
AcDbEntity
  8
0
  6
Continuous
 62
     7
370
    25
100
AcDbLine
 10
-167.4999999994
 20
446.5
 30
0.0
 11
-167.4999999994
 21
451.5
 31
0.0
  0
LINE
  5
493
330
1F
100
AcDbEntity
  8
0
  6
Continuous
 62
     7
370
    25
100
AcDbLine
 10
-167.4999999994
 20
451.5
 30
0.0
 11
-217.4999999994
 21
451.5
 31
0.0
  0
LINE
  5
494
330
1F
100
AcDbEntity
  8
0
  6
Continuous
 62
     7
370
    25
100
AcDbLine
 10
-217.4999999994
 20
451.5
 30
0.0
 11
-217.4999999994
 21
446.5
 31
0.0
  0
LINE
  5
495
330
1F
100
AcDbEntity
  8
0
  6
Continuous
 62
     7
370
    25
100
AcDbLine
 10
-134.4999999994
 20
446.5
 30
0.0
 11
-84.4999999994
 21
446.5
 31
0.0
  0
LINE
  5
496
330
1F
100
AcDbEntity
  8
0
  6
Continuous
 62
     7
370
    25
100
AcDbLine
 10
-84.4999999994
 20
446.5
 30
0.0
 11
-84.4999999994
 21
451.5
 31
0.0
  0
LINE
  5
497
330
1F
100
AcDbEntity
  8
0
  6
Continuous
 62
     7
370
    25
100
AcDbLine
 10
-84.4999999994
 20
451.5
 30
0.0
 11
-134.4999999994
 21
451.5
 31
0.0
  0
LINE
  5
498
330
1F
100
AcDbEntity
  8
0
  6
Continuous
 62
     7
370
    25
100
AcDbLine
 10
-134.4999999994
 20
451.5
 30
0.0
 11
-134.4999999994
 21
446.5
 31
0.0
  0
LINE
  5
499
330
1F
100
AcDbEntity
  8
0
  6
Continuous
 62
     7
370
    25
100
AcDbLine
 10
-300.4999999994
 20
466.5
 30
0.0
 11
-250.4999999994
 21
466.5
 31
0.0
  0
LINE
  5
49A
330
1F
100
AcDbEntity
  8
0
  6
Continuous
 62
     7
370
    25
100
AcDbLine
 10
-250.4999999994
 20
466.5
 30
0.0
 11
-250.4999999994
 21
471.5
 31
0.0
  0
LINE
  5
49B
330
1F
100
AcDbEntity
  8
0
  6
Continuous
 62
     7
370
    25
100
AcDbLine
 10
-250.4999999994
 20
471.5
 30
0.0
 11
-300.4999999994
 21
471.5
 31
0.0
  0
LINE
  5
49C
330
1F
100
AcDbEntity
  8
0
  6
Continuous
 62
     7
370
    25
100
AcDbLine
 10
-300.4999999994
 20
471.5
 30
0.0
 11
-300.4999999994
 21
466.5
 31
0.0
  0
LINE
  5
49D
330
1F
100
AcDbEntity
  8
0
  6
Continuous
 62
     7
370
    25
100
AcDbLine
 10
-217.4999999994
 20
466.5
 30
0.0
 11
-167.4999999994
 21
466.5
 31
0.0
  0
LINE
  5
49E
330
1F
100
AcDbEntity
  8
0
  6
Continuous
 62
     7
370
    25
100
AcDbLine
 10
-167.4999999994
 20
466.5
 30
0.0
 11
-167.4999999994
 21
471.5
 31
0.0
  0
LINE
  5
49F
330
1F
100
AcDbEntity
  8
0
  6
Continuous
 62
     7
370
    25
100
AcDbLine
 10
-167.4999999994
 20
471.5
 30
0.0
 11
-217.4999999994
 21
471.5
 31
0.0
  0
LINE
  5
4A0
330
1F
100
AcDbEntity
  8
0
  6
Continuous
 62
     7
370
    25
100
AcDbLine
 10
-217.4999999994
 20
471.5
 30
0.0
 11
-217.4999999994
 21
466.5
 31
0.0
  0
LINE
  5
4A1
330
1F
100
AcDbEntity
  8
0
  6
Continuous
 62
     7
370
    25
100
AcDbLine
 10
-51.4999999994
 20
546.5
 30
0.0
 11
-1.4999999994
 21
546.5
 31
0.0
  0
LINE
  5
4A2
330
1F
100
AcDbEntity
  8
0
  6
Continuous
 62
     7
370
    25
100
AcDbLine
 10
-1.4999999994
 20
546.5
 30
0.0
 11
-1.4999999994
 21
551.5
 31
0.0
  0
LINE
  5
4A3
330
1F
100
AcDbEntity
  8
0
  6
Continuous
 62
     7
370
    25
100
AcDbLine
 10
-1.4999999994
 20
551.5
 30
0.0
 11
-51.4999999994
 21
551.5
 31
0.0
  0
LINE
  5
4A4
330
1F
100
AcDbEntity
  8
0
  6
Continuous
 62
     7
370
    25
100
AcDbLine
 10
-51.4999999994
 20
551.5
 30
0.0
 11
-51.4999999994
 21
546.5
 31
0.0
  0
LINE
  5
4A5
330
1F
100
AcDbEntity
  8
0
  6
Continuous
 62
     7
370
    25
100
AcDbLine
 10
-51.4999999994
 20
566.5
 30
0.0
 11
-1.4999999994
 21
566.5
 31
0.0
  0
LINE
  5
4A6
330
1F
100
AcDbEntity
  8
0
  6
Continuous
 62
     7
370
    25
100
AcDbLine
 10
-1.4999999994
 20
566.5
 30
0.0
 11
-1.4999999994
 21
571.5
 31
0.0
  0
LINE
  5
4A7
330
1F
100
AcDbEntity
  8
0
  6
Continuous
 62
     7
370
    25
100
AcDbLine
 10
-1.4999999994
 20
571.5
 30
0.0
 11
-51.4999999994
 21
571.5
 31
0.0
  0
LINE
  5
4A8
330
1F
100
AcDbEntity
  8
0
  6
Continuous
 62
     7
370
    25
100
AcDbLine
 10
-51.4999999994
 20
571.5
 30
0.0
 11
-51.4999999994
 21
566.5
 31
0.0
  0
LINE
  5
4A9
330
1F
100
AcDbEntity
  8
0
  6
Continuous
 62
     7
370
    25
100
AcDbLine
 10
-51.4999999994
 20
586.5
 30
0.0
 11
-1.4999999994
 21
586.5
 31
0.0
  0
LINE
  5
4AA
330
1F
100
AcDbEntity
  8
0
  6
Continuous
 62
     7
370
    25
100
AcDbLine
 10
-1.4999999994
 20
586.5
 30
0.0
 11
-1.4999999994
 21
591.5
 31
0.0
  0
LINE
  5
4AB
330
1F
100
AcDbEntity
  8
0
  6
Continuous
 62
     7
370
    25
100
AcDbLine
 10
-1.4999999994
 20
591.5
 30
0.0
 11
-51.4999999994
 21
591.5
 31
0.0
  0
LINE
  5
4AC
330
1F
100
AcDbEntity
  8
0
  6
Continuous
 62
     7
370
    25
100
AcDbLine
 10
-51.4999999994
 20
591.5
 30
0.0
 11
-51.4999999994
 21
586.5
 31
0.0
  0
LINE
  5
4AD
330
1F
100
AcDbEntity
  8
0
  6
Continuous
 62
     7
370
    25
100
AcDbLine
 10
-51.4999999994
 20
606.5
 30
0.0
 11
-1.4999999994
 21
606.5
 31
0.0
  0
LINE
  5
4AE
330
1F
100
AcDbEntity
  8
0
  6
Continuous
 62
     7
370
    25
100
AcDbLine
 10
-1.4999999994
 20
606.5
 30
0.0
 11
-1.4999999994
 21
611.5
 31
0.0
  0
LINE
  5
4AF
330
1F
100
AcDbEntity
  8
0
  6
Continuous
 62
     7
370
    25
100
AcDbLine
 10
-1.4999999994
 20
611.5
 30
0.0
 11
-51.4999999994
 21
611.5
 31
0.0
  0
LINE
  5
4B0
330
1F
100
AcDbEntity
  8
0
  6
Continuous
 62
     7
370
    25
100
AcDbLine
 10
-51.4999999994
 20
611.5
 30
0.0
 11
-51.4999999994
 21
606.5
 31
0.0
  0
LINE
  5
4B1
330
1F
100
AcDbEntity
  8
0
  6
Continuous
 62
     7
370
    25
100
AcDbLine
 10
-134.4999999994
 20
406.5
 30
0.0
 11
-84.4999999994
 21
406.5
 31
0.0
  0
LINE
  5
4B2
330
1F
100
AcDbEntity
  8
0
  6
Continuous
 62
     7
370
    25
100
AcDbLine
 10
-84.4999999994
 20
406.5
 30
0.0
 11
-84.4999999994
 21
411.5
 31
0.0
  0
LINE
  5
4B3
330
1F
100
AcDbEntity
  8
0
  6
Continuous
 62
     7
370
    25
100
AcDbLine
 10
-84.4999999994
 20
411.5
 30
0.0
 11
-134.4999999994
 21
411.5
 31
0.0
  0
LINE
  5
4B4
330
1F
100
AcDbEntity
  8
0
  6
Continuous
 62
     7
370
    25
100
AcDbLine
 10
-134.4999999994
 20
411.5
 30
0.0
 11
-134.4999999994
 21
406.5
 31
0.0
  0
LINE
  5
4B5
330
1F
100
AcDbEntity
  8
0
  6
Continuous
 62
     7
370
    25
100
AcDbLine
 10
-217.4999999994
 20
406.5
 30
0.0
 11
-167.4999999994
 21
406.5
 31
0.0
  0
LINE
  5
4B6
330
1F
100
AcDbEntity
  8
0
  6
Continuous
 62
     7
370
    25
100
AcDbLine
 10
-167.4999999994
 20
406.5
 30
0.0
 11
-167.4999999994
 21
411.5
 31
0.0
  0
LINE
  5
4B7
330
1F
100
AcDbEntity
  8
0
  6
Continuous
 62
     7
370
    25
100
AcDbLine
 10
-167.4999999994
 20
411.5
 30
0.0
 11
-217.4999999994
 21
411.5
 31
0.0
  0
LINE
  5
4B8
330
1F
100
AcDbEntity
  8
0
  6
Continuous
 62
     7
370
    25
100
AcDbLine
 10
-217.4999999994
 20
411.5
 30
0.0
 11
-217.4999999994
 21
406.5
 31
0.0
  0
LINE
  5
4B9
330
1F
100
AcDbEntity
  8
0
  6
Continuous
 62
     7
370
    25
100
AcDbLine
 10
-300.4999999994
 20
406.5
 30
0.0
 11
-250.4999999994
 21
406.5
 31
0.0
  0
LINE
  5
4BA
330
1F
100
AcDbEntity
  8
0
  6
Continuous
 62
     7
370
    25
100
AcDbLine
 10
-250.4999999994
 20
406.5
 30
0.0
 11
-250.4999999994
 21
411.5
 31
0.0
  0
LINE
  5
4BB
330
1F
100
AcDbEntity
  8
0
  6
Continuous
 62
     7
370
    25
100
AcDbLine
 10
-250.4999999994
 20
411.5
 30
0.0
 11
-300.4999999994
 21
411.5
 31
0.0
  0
LINE
  5
4BC
330
1F
100
AcDbEntity
  8
0
  6
Continuous
 62
     7
370
    25
100
AcDbLine
 10
-300.4999999994
 20
411.5
 30
0.0
 11
-300.4999999994
 21
406.5
 31
0.0
  0
LINE
  5
4BD
330
1F
100
AcDbEntity
  8
0
  6
Continuous
 62
     7
370
    25
100
AcDbLine
 10
-51.4999999994
 20
626.5
 30
0.0
 11
-1.4999999994
 21
626.5
 31
0.0
  0
LINE
  5
4BE
330
1F
100
AcDbEntity
  8
0
  6
Continuous
 62
     7
370
    25
100
AcDbLine
 10
-1.4999999994
 20
626.5
 30
0.0
 11
-1.4999999994
 21
631.5
 31
0.0
  0
LINE
  5
4BF
330
1F
100
AcDbEntity
  8
0
  6
Continuous
 62
     7
370
    25
100
AcDbLine
 10
-1.4999999994
 20
631.5
 30
0.0
 11
-51.4999999994
 21
631.5
 31
0.0
  0
LINE
  5
4C0
330
1F
100
AcDbEntity
  8
0
  6
Continuous
 62
     7
370
    25
100
AcDbLine
 10
-51.4999999994
 20
631.5
 30
0.0
 11
-51.4999999994
 21
626.5
 31
0.0
  0
LINE
  5
4C1
330
1F
100
AcDbEntity
  8
0
  6
Continuous
 62
     7
370
    25
100
AcDbLine
 10
-134.4999999994
 20
586.5
 30
0.0
 11
-84.4999999994
 21
586.5
 31
0.0
  0
LINE
  5
4C2
330
1F
100
AcDbEntity
  8
0
  6
Continuous
 62
     7
370
    25
100
AcDbLine
 10
-84.4999999994
 20
586.5
 30
0.0
 11
-84.4999999994
 21
591.5
 31
0.0
  0
LINE
  5
4C3
330
1F
100
AcDbEntity
  8
0
  6
Continuous
 62
     7
370
    25
100
AcDbLine
 10
-84.4999999994
 20
591.5
 30
0.0
 11
-134.4999999994
 21
591.5
 31
0.0
  0
LINE
  5
4C4
330
1F
100
AcDbEntity
  8
0
  6
Continuous
 62
     7
370
    25
100
AcDbLine
 10
-134.4999999994
 20
591.5
 30
0.0
 11
-134.4999999994
 21
586.5
 31
0.0
  0
LINE
  5
4C5
330
1F
100
AcDbEntity
  8
0
  6
Continuous
 62
     7
370
    25
100
AcDbLine
 10
-134.4999999994
 20
566.5
 30
0.0
 11
-84.4999999994
 21
566.5
 31
0.0
  0
LINE
  5
4C6
330
1F
100
AcDbEntity
  8
0
  6
Continuous
 62
     7
370
    25
100
AcDbLine
 10
-84.4999999994
 20
566.5
 30
0.0
 11
-84.4999999994
 21
571.5
 31
0.0
  0
LINE
  5
4C7
330
1F
100
AcDbEntity
  8
0
  6
Continuous
 62
     7
370
    25
100
AcDbLine
 10
-84.4999999994
 20
571.5
 30
0.0
 11
-134.4999999994
 21
571.5
 31
0.0
  0
LINE
  5
4C8
330
1F
100
AcDbEntity
  8
0
  6
Continuous
 62
     7
370
    25
100
AcDbLine
 10
-134.4999999994
 20
571.5
 30
0.0
 11
-134.4999999994
 21
566.5
 31
0.0
  0
LINE
  5
4C9
330
1F
100
AcDbEntity
  8
0
  6
Continuous
 62
     7
370
    25
100
AcDbLine
 10
-217.4999999994
 20
566.5
 30
0.0
 11
-167.4999999994
 21
566.5
 31
0.0
  0
LINE
  5
4CA
330
1F
100
AcDbEntity
  8
0
  6
Continuous
 62
     7
370
    25
100
AcDbLine
 10
-167.4999999994
 20
566.5
 30
0.0
 11
-167.4999999994
 21
571.5
 31
0.0
  0
LINE
  5
4CB
330
1F
100
AcDbEntity
  8
0
  6
Continuous
 62
     7
370
    25
100
AcDbLine
 10
-167.4999999994
 20
571.5
 30
0.0
 11
-217.4999999994
 21
571.5
 31
0.0
  0
LINE
  5
4CC
330
1F
100
AcDbEntity
  8
0
  6
Continuous
 62
     7
370
    25
100
AcDbLine
 10
-217.4999999994
 20
571.5
 30
0.0
 11
-217.4999999994
 21
566.5
 31
0.0
  0
LINE
  5
4CD
330
1F
100
AcDbEntity
  8
0
  6
Continuous
 62
     7
370
    25
100
AcDbLine
 10
-134.4999999994
 20
546.5
 30
0.0
 11
-84.4999999994
 21
546.5
 31
0.0
  0
LINE
  5
4CE
330
1F
100
AcDbEntity
  8
0
  6
Continuous
 62
     7
370
    25
100
AcDbLine
 10
-84.4999999994
 20
546.5
 30
0.0
 11
-84.4999999994
 21
551.5
 31
0.0
  0
LINE
  5
4CF
330
1F
100
AcDbEntity
  8
0
  6
Continuous
 62
     7
370
    25
100
AcDbLine
 10
-84.4999999994
 20
551.5
 30
0.0
 11
-134.4999999994
 21
551.5
 31
0.0
  0
LINE
  5
4D0
330
1F
100
AcDbEntity
  8
0
  6
Continuous
 62
     7
370
    25
100
AcDbLine
 10
-134.4999999994
 20
551.5
 30
0.0
 11
-134.4999999994
 21
546.5
 31
0.0
  0
LINE
  5
4D1
330
1F
100
AcDbEntity
  8
0
  6
Continuous
 62
     7
370
    25
100
AcDbLine
 10
1.5000000006
 20
411.5
 30
0.0
 11
1.5000000006
 21
406.5
 31
0.0
  0
LINE
  5
4D2
330
1F
100
AcDbEntity
  8
0
  6
Continuous
 62
     7
370
    25
100
AcDbLine
 10
1.5000000006
 20
406.5
 30
0.0
 11
51.5000000006
 21
406.5
 31
0.0
  0
LINE
  5
4D3
330
1F
100
AcDbEntity
  8
0
  6
Continuous
 62
     7
370
    25
100
AcDbLine
 10
51.5000000006
 20
406.5
 30
0.0
 11
51.5000000006
 21
411.5
 31
0.0
  0
LINE
  5
4D4
330
1F
100
AcDbEntity
  8
0
  6
Continuous
 62
     7
370
    25
100
AcDbLine
 10
51.5000000006
 20
411.5
 30
0.0
 11
1.5000000006
 21
411.5
 31
0.0
  0
LINE
  5
4D5
330
1F
100
AcDbEntity
  8
0
  6
Continuous
 62
     7
370
    25
100
AcDbLine
 10
-134.4999999994
 20
646.5
 30
0.0
 11
-84.4999999994
 21
646.5
 31
0.0
  0
LINE
  5
4D6
330
1F
100
AcDbEntity
  8
0
  6
Continuous
 62
     7
370
    25
100
AcDbLine
 10
-84.4999999994
 20
646.5
 30
0.0
 11
-84.4999999994
 21
651.5
 31
0.0
  0
LINE
  5
4D7
330
1F
100
AcDbEntity
  8
0
  6
Continuous
 62
     7
370
    25
100
AcDbLine
 10
-84.4999999994
 20
651.5
 30
0.0
 11
-134.4999999994
 21
651.5
 31
0.0
  0
LINE
  5
4D8
330
1F
100
AcDbEntity
  8
0
  6
Continuous
 62
     7
370
    25
100
AcDbLine
 10
-134.4999999994
 20
651.5
 30
0.0
 11
-134.4999999994
 21
646.5
 31
0.0
  0
LINE
  5
4D9
330
1F
100
AcDbEntity
  8
0
  6
Continuous
 62
     7
370
    25
100
AcDbLine
 10
-134.4999999994
 20
626.5
 30
0.0
 11
-84.4999999994
 21
626.5
 31
0.0
  0
LINE
  5
4DA
330
1F
100
AcDbEntity
  8
0
  6
Continuous
 62
     7
370
    25
100
AcDbLine
 10
-84.4999999994
 20
626.5
 30
0.0
 11
-84.4999999994
 21
631.5
 31
0.0
  0
LINE
  5
4DB
330
1F
100
AcDbEntity
  8
0
  6
Continuous
 62
     7
370
    25
100
AcDbLine
 10
-84.4999999994
 20
631.5
 30
0.0
 11
-134.4999999994
 21
631.5
 31
0.0
  0
LINE
  5
4DC
330
1F
100
AcDbEntity
  8
0
  6
Continuous
 62
     7
370
    25
100
AcDbLine
 10
-134.4999999994
 20
631.5
 30
0.0
 11
-134.4999999994
 21
626.5
 31
0.0
  0
LINE
  5
4DD
330
1F
100
AcDbEntity
  8
0
  6
Continuous
 62
     7
370
    25
100
AcDbLine
 10
-134.4999999994
 20
606.5
 30
0.0
 11
-84.4999999994
 21
606.5
 31
0.0
  0
LINE
  5
4DE
330
1F
100
AcDbEntity
  8
0
  6
Continuous
 62
     7
370
    25
100
AcDbLine
 10
-84.4999999994
 20
606.5
 30
0.0
 11
-84.4999999994
 21
611.5
 31
0.0
  0
LINE
  5
4DF
330
1F
100
AcDbEntity
  8
0
  6
Continuous
 62
     7
370
    25
100
AcDbLine
 10
-84.4999999994
 20
611.5
 30
0.0
 11
-134.4999999994
 21
611.5
 31
0.0
  0
LINE
  5
4E0
330
1F
100
AcDbEntity
  8
0
  6
Continuous
 62
     7
370
    25
100
AcDbLine
 10
-134.4999999994
 20
611.5
 30
0.0
 11
-134.4999999994
 21
606.5
 31
0.0
  0
LINE
  5
4E1
330
1F
100
AcDbEntity
  8
0
  6
Continuous
 62
     7
370
    25
100
AcDbLine
 10
-217.4999999994
 20
506.5
 30
0.0
 11
-167.4999999994
 21
506.5
 31
0.0
  0
LINE
  5
4E2
330
1F
100
AcDbEntity
  8
0
  6
Continuous
 62
     7
370
    25
100
AcDbLine
 10
-167.4999999994
 20
506.5
 30
0.0
 11
-167.4999999994
 21
511.5
 31
0.0
  0
LINE
  5
4E3
330
1F
100
AcDbEntity
  8
0
  6
Continuous
 62
     7
370
    25
100
AcDbLine
 10
-167.4999999994
 20
511.5
 30
0.0
 11
-217.4999999994
 21
511.5
 31
0.0
  0
LINE
  5
4E4
330
1F
100
AcDbEntity
  8
0
  6
Continuous
 62
     7
370
    25
100
AcDbLine
 10
-217.4999999994
 20
511.5
 30
0.0
 11
-217.4999999994
 21
506.5
 31
0.0
  0
LINE
  5
4E5
330
1F
100
AcDbEntity
  8
0
  6
Continuous
 62
     7
370
    25
100
AcDbLine
 10
-134.4999999994
 20
486.5
 30
0.0
 11
-84.4999999994
 21
486.5
 31
0.0
  0
LINE
  5
4E6
330
1F
100
AcDbEntity
  8
0
  6
Continuous
 62
     7
370
    25
100
AcDbLine
 10
-84.4999999994
 20
486.5
 30
0.0
 11
-84.4999999994
 21
491.5
 31
0.0
  0
LINE
  5
4E7
330
1F
100
AcDbEntity
  8
0
  6
Continuous
 62
     7
370
    25
100
AcDbLine
 10
-84.4999999994
 20
491.5
 30
0.0
 11
-134.4999999994
 21
491.5
 31
0.0
  0
LINE
  5
4E8
330
1F
100
AcDbEntity
  8
0
  6
Continuous
 62
     7
370
    25
100
AcDbLine
 10
-134.4999999994
 20
491.5
 30
0.0
 11
-134.4999999994
 21
486.5
 31
0.0
  0
LINE
  5
4E9
330
1F
100
AcDbEntity
  8
0
  6
Continuous
 62
     7
370
    25
100
AcDbLine
 10
-217.4999999994
 20
486.5
 30
0.0
 11
-167.4999999994
 21
486.5
 31
0.0
  0
LINE
  5
4EA
330
1F
100
AcDbEntity
  8
0
  6
Continuous
 62
     7
370
    25
100
AcDbLine
 10
-167.4999999994
 20
486.5
 30
0.0
 11
-167.4999999994
 21
491.5
 31
0.0
  0
LINE
  5
4EB
330
1F
100
AcDbEntity
  8
0
  6
Continuous
 62
     7
370
    25
100
AcDbLine
 10
-167.4999999994
 20
491.5
 30
0.0
 11
-217.4999999994
 21
491.5
 31
0.0
  0
LINE
  5
4EC
330
1F
100
AcDbEntity
  8
0
  6
Continuous
 62
     7
370
    25
100
AcDbLine
 10
-217.4999999994
 20
491.5
 30
0.0
 11
-217.4999999994
 21
486.5
 31
0.0
  0
LINE
  5
4ED
330
1F
100
AcDbEntity
  8
0
  6
Continuous
 62
     7
370
    25
100
AcDbLine
 10
-134.4999999994
 20
466.5
 30
0.0
 11
-84.4999999994
 21
466.5
 31
0.0
  0
LINE
  5
4EE
330
1F
100
AcDbEntity
  8
0
  6
Continuous
 62
     7
370
    25
100
AcDbLine
 10
-84.4999999994
 20
466.5
 30
0.0
 11
-84.4999999994
 21
471.5
 31
0.0
  0
LINE
  5
4EF
330
1F
100
AcDbEntity
  8
0
  6
Continuous
 62
     7
370
    25
100
AcDbLine
 10
-84.4999999994
 20
471.5
 30
0.0
 11
-134.4999999994
 21
471.5
 31
0.0
  0
LINE
  5
4F0
330
1F
100
AcDbEntity
  8
0
  6
Continuous
 62
     7
370
    25
100
AcDbLine
 10
-134.4999999994
 20
471.5
 30
0.0
 11
-134.4999999994
 21
466.5
 31
0.0
  0
LINE
  5
4F1
330
1F
100
AcDbEntity
  8
0
  6
Continuous
 62
     7
370
    25
100
AcDbLine
 10
-217.4999999994
 20
546.5
 30
0.0
 11
-167.4999999994
 21
546.5
 31
0.0
  0
LINE
  5
4F2
330
1F
100
AcDbEntity
  8
0
  6
Continuous
 62
     7
370
    25
100
AcDbLine
 10
-167.4999999994
 20
546.5
 30
0.0
 11
-167.4999999994
 21
551.5
 31
0.0
  0
LINE
  5
4F3
330
1F
100
AcDbEntity
  8
0
  6
Continuous
 62
     7
370
    25
100
AcDbLine
 10
-167.4999999994
 20
551.5
 30
0.0
 11
-217.4999999994
 21
551.5
 31
0.0
  0
LINE
  5
4F4
330
1F
100
AcDbEntity
  8
0
  6
Continuous
 62
     7
370
    25
100
AcDbLine
 10
-217.4999999994
 20
551.5
 30
0.0
 11
-217.4999999994
 21
546.5
 31
0.0
  0
LINE
  5
4F5
330
1F
100
AcDbEntity
  8
0
  6
Continuous
 62
     7
370
    25
100
AcDbLine
 10
-134.4999999994
 20
526.5
 30
0.0
 11
-84.4999999994
 21
526.5
 31
0.0
  0
LINE
  5
4F6
330
1F
100
AcDbEntity
  8
0
  6
Continuous
 62
     7
370
    25
100
AcDbLine
 10
-84.4999999994
 20
526.5
 30
0.0
 11
-84.4999999994
 21
531.5
 31
0.0
  0
LINE
  5
4F7
330
1F
100
AcDbEntity
  8
0
  6
Continuous
 62
     7
370
    25
100
AcDbLine
 10
-84.4999999994
 20
531.5
 30
0.0
 11
-134.4999999994
 21
531.5
 31
0.0
  0
LINE
  5
4F8
330
1F
100
AcDbEntity
  8
0
  6
Continuous
 62
     7
370
    25
100
AcDbLine
 10
-134.4999999994
 20
531.5
 30
0.0
 11
-134.4999999994
 21
526.5
 31
0.0
  0
LINE
  5
4F9
330
1F
100
AcDbEntity
  8
0
  6
Continuous
 62
     7
370
    25
100
AcDbLine
 10
-217.4999999994
 20
526.5
 30
0.0
 11
-167.4999999994
 21
526.5
 31
0.0
  0
LINE
  5
4FA
330
1F
100
AcDbEntity
  8
0
  6
Continuous
 62
     7
370
    25
100
AcDbLine
 10
-167.4999999994
 20
526.5
 30
0.0
 11
-167.4999999994
 21
531.5
 31
0.0
  0
LINE
  5
4FB
330
1F
100
AcDbEntity
  8
0
  6
Continuous
 62
     7
370
    25
100
AcDbLine
 10
-167.4999999994
 20
531.5
 30
0.0
 11
-217.4999999994
 21
531.5
 31
0.0
  0
LINE
  5
4FC
330
1F
100
AcDbEntity
  8
0
  6
Continuous
 62
     7
370
    25
100
AcDbLine
 10
-217.4999999994
 20
531.5
 30
0.0
 11
-217.4999999994
 21
526.5
 31
0.0
  0
LINE
  5
4FD
330
1F
100
AcDbEntity
  8
0
  6
Continuous
 62
     7
370
    25
100
AcDbLine
 10
-134.4999999994
 20
506.5
 30
0.0
 11
-84.4999999994
 21
506.5
 31
0.0
  0
LINE
  5
4FE
330
1F
100
AcDbEntity
  8
0
  6
Continuous
 62
     7
370
    25
100
AcDbLine
 10
-84.4999999994
 20
506.5
 30
0.0
 11
-84.4999999994
 21
511.5
 31
0.0
  0
LINE
  5
4FF
330
1F
100
AcDbEntity
  8
0
  6
Continuous
 62
     7
370
    25
100
AcDbLine
 10
-84.4999999994
 20
511.5
 30
0.0
 11
-134.4999999994
 21
511.5
 31
0.0
  0
LINE
  5
500
330
1F
100
AcDbEntity
  8
0
  6
Continuous
 62
     7
370
    25
100
AcDbLine
 10
-134.4999999994
 20
511.5
 30
0.0
 11
-134.4999999994
 21
506.5
 31
0.0
  0
LINE
  5
501
330
1F
100
AcDbEntity
  8
0
  6
Continuous
 62
     7
370
    25
100
AcDbLine
 10
84.5000000006
 20
411.5
 30
0.0
 11
84.5000000006
 21
406.5
 31
0.0
  0
LINE
  5
502
330
1F
100
AcDbEntity
  8
0
  6
Continuous
 62
     7
370
    25
100
AcDbLine
 10
84.5000000006
 20
406.5
 30
0.0
 11
134.5000000006
 21
406.5
 31
0.0
  0
LINE
  5
503
330
1F
100
AcDbEntity
  8
0
  6
Continuous
 62
     7
370
    25
100
AcDbLine
 10
134.5000000006
 20
406.5
 30
0.0
 11
134.5000000006
 21
411.5
 31
0.0
  0
LINE
  5
504
330
1F
100
AcDbEntity
  8
0
  6
Continuous
 62
     7
370
    25
100
AcDbLine
 10
134.5000000006
 20
411.5
 30
0.0
 11
84.5000000006
 21
411.5
 31
0.0
  0
LINE
  5
505
330
1F
100
AcDbEntity
  8
0
  6
Continuous
 62
     7
370
    25
100
AcDbLine
 10
250.5000000006
 20
431.5
 30
0.0
 11
250.5000000006
 21
426.5
 31
0.0
  0
LINE
  5
506
330
1F
100
AcDbEntity
  8
0
  6
Continuous
 62
     7
370
    25
100
AcDbLine
 10
250.5000000006
 20
426.5
 30
0.0
 11
300.5000000006
 21
426.5
 31
0.0
  0
LINE
  5
507
330
1F
100
AcDbEntity
  8
0
  6
Continuous
 62
     7
370
    25
100
AcDbLine
 10
300.5000000006
 20
426.5
 30
0.0
 11
300.5000000006
 21
431.5
 31
0.0
  0
LINE
  5
508
330
1F
100
AcDbEntity
  8
0
  6
Continuous
 62
     7
370
    25
100
AcDbLine
 10
300.5000000006
 20
431.5
 30
0.0
 11
250.5000000006
 21
431.5
 31
0.0
  0
LINE
  5
509
330
1F
100
AcDbEntity
  8
0
  6
Continuous
 62
     7
370
    25
100
AcDbLine
 10
167.5000000006
 20
431.5
 30
0.0
 11
167.5000000006
 21
426.5
 31
0.0
  0
LINE
  5
50A
330
1F
100
AcDbEntity
  8
0
  6
Continuous
 62
     7
370
    25
100
AcDbLine
 10
167.5000000006
 20
426.5
 30
0.0
 11
217.5000000006
 21
426.5
 31
0.0
  0
LINE
  5
50B
330
1F
100
AcDbEntity
  8
0
  6
Continuous
 62
     7
370
    25
100
AcDbLine
 10
217.5000000006
 20
426.5
 30
0.0
 11
217.5000000006
 21
431.5
 31
0.0
  0
LINE
  5
50C
330
1F
100
AcDbEntity
  8
0
  6
Continuous
 62
     7
370
    25
100
AcDbLine
 10
217.5000000006
 20
431.5
 30
0.0
 11
167.5000000006
 21
431.5
 31
0.0
  0
LINE
  5
50D
330
1F
100
AcDbEntity
  8
0
  6
Continuous
 62
     7
370
    25
100
AcDbLine
 10
84.5000000006
 20
431.5
 30
0.0
 11
84.5000000006
 21
426.5
 31
0.0
  0
LINE
  5
50E
330
1F
100
AcDbEntity
  8
0
  6
Continuous
 62
     7
370
    25
100
AcDbLine
 10
84.5000000006
 20
426.5
 30
0.0
 11
134.5000000006
 21
426.5
 31
0.0
  0
LINE
  5
50F
330
1F
100
AcDbEntity
  8
0
  6
Continuous
 62
     7
370
    25
100
AcDbLine
 10
134.5000000006
 20
426.5
 30
0.0
 11
134.5000000006
 21
431.5
 31
0.0
  0
LINE
  5
510
330
1F
100
AcDbEntity
  8
0
  6
Continuous
 62
     7
370
    25
100
AcDbLine
 10
134.5000000006
 20
431.5
 30
0.0
 11
84.5000000006
 21
431.5
 31
0.0
  0
LINE
  5
511
330
1F
100
AcDbEntity
  8
0
  6
Continuous
 62
     7
370
    25
100
AcDbLine
 10
167.5000000006
 20
411.5
 30
0.0
 11
167.5000000006
 21
406.5
 31
0.0
  0
LINE
  5
512
330
1F
100
AcDbEntity
  8
0
  6
Continuous
 62
     7
370
    25
100
AcDbLine
 10
167.5000000006
 20
406.5
 30
0.0
 11
217.5000000006
 21
406.5
 31
0.0
  0
LINE
  5
513
330
1F
100
AcDbEntity
  8
0
  6
Continuous
 62
     7
370
    25
100
AcDbLine
 10
217.5000000006
 20
406.5
 30
0.0
 11
217.5000000006
 21
411.5
 31
0.0
  0
LINE
  5
514
330
1F
100
AcDbEntity
  8
0
  6
Continuous
 62
     7
370
    25
100
AcDbLine
 10
217.5000000006
 20
411.5
 30
0.0
 11
167.5000000006
 21
411.5
 31
0.0
  0
LINE
  5
515
330
1F
100
AcDbEntity
  8
0
  6
Continuous
 62
     7
370
    25
100
AcDbLine
 10
250.5000000006
 20
411.5
 30
0.0
 11
250.5000000006
 21
406.5
 31
0.0
  0
LINE
  5
516
330
1F
100
AcDbEntity
  8
0
  6
Continuous
 62
     7
370
    25
100
AcDbLine
 10
250.5000000006
 20
406.5
 30
0.0
 11
300.5000000006
 21
406.5
 31
0.0
  0
LINE
  5
517
330
1F
100
AcDbEntity
  8
0
  6
Continuous
 62
     7
370
    25
100
AcDbLine
 10
300.5000000006
 20
406.5
 30
0.0
 11
300.5000000006
 21
411.5
 31
0.0
  0
LINE
  5
518
330
1F
100
AcDbEntity
  8
0
  6
Continuous
 62
     7
370
    25
100
AcDbLine
 10
300.5000000006
 20
411.5
 30
0.0
 11
250.5000000006
 21
411.5
 31
0.0
  0
LINE
  5
519
330
1F
100
AcDbEntity
  8
0
  6
Continuous
 62
     7
370
    25
100
AcDbLine
 10
1.5000000006
 20
631.5
 30
0.0
 11
1.5000000006
 21
626.5
 31
0.0
  0
LINE
  5
51A
330
1F
100
AcDbEntity
  8
0
  6
Continuous
 62
     7
370
    25
100
AcDbLine
 10
1.5000000006
 20
626.5
 30
0.0
 11
51.5000000006
 21
626.5
 31
0.0
  0
LINE
  5
51B
330
1F
100
AcDbEntity
  8
0
  6
Continuous
 62
     7
370
    25
100
AcDbLine
 10
51.5000000006
 20
626.5
 30
0.0
 11
51.5000000006
 21
631.5
 31
0.0
  0
LINE
  5
51C
330
1F
100
AcDbEntity
  8
0
  6
Continuous
 62
     7
370
    25
100
AcDbLine
 10
51.5000000006
 20
631.5
 30
0.0
 11
1.5000000006
 21
631.5
 31
0.0
  0
LINE
  5
51D
330
1F
100
AcDbEntity
  8
0
  6
Continuous
 62
     7
370
    25
100
AcDbLine
 10
1.5000000006
 20
611.5
 30
0.0
 11
1.5000000006
 21
606.5
 31
0.0
  0
LINE
  5
51E
330
1F
100
AcDbEntity
  8
0
  6
Continuous
 62
     7
370
    25
100
AcDbLine
 10
1.5000000006
 20
606.5
 30
0.0
 11
51.5000000006
 21
606.5
 31
0.0
  0
LINE
  5
51F
330
1F
100
AcDbEntity
  8
0
  6
Continuous
 62
     7
370
    25
100
AcDbLine
 10
51.5000000006
 20
606.5
 30
0.0
 11
51.5000000006
 21
611.5
 31
0.0
  0
LINE
  5
520
330
1F
100
AcDbEntity
  8
0
  6
Continuous
 62
     7
370
    25
100
AcDbLine
 10
51.5000000006
 20
611.5
 30
0.0
 11
1.5000000006
 21
611.5
 31
0.0
  0
LINE
  5
521
330
1F
100
AcDbEntity
  8
0
  6
Continuous
 62
     7
370
    25
100
AcDbLine
 10
84.5000000006
 20
491.5
 30
0.0
 11
84.5000000006
 21
486.5
 31
0.0
  0
LINE
  5
522
330
1F
100
AcDbEntity
  8
0
  6
Continuous
 62
     7
370
    25
100
AcDbLine
 10
84.5000000006
 20
486.5
 30
0.0
 11
134.5000000006
 21
486.5
 31
0.0
  0
LINE
  5
523
330
1F
100
AcDbEntity
  8
0
  6
Continuous
 62
     7
370
    25
100
AcDbLine
 10
134.5000000006
 20
486.5
 30
0.0
 11
134.5000000006
 21
491.5
 31
0.0
  0
LINE
  5
524
330
1F
100
AcDbEntity
  8
0
  6
Continuous
 62
     7
370
    25
100
AcDbLine
 10
134.5000000006
 20
491.5
 30
0.0
 11
84.5000000006
 21
491.5
 31
0.0
  0
LINE
  5
525
330
1F
100
AcDbEntity
  8
0
  6
Continuous
 62
     7
370
    25
100
AcDbLine
 10
167.5000000006
 20
491.5
 30
0.0
 11
167.5000000006
 21
486.5
 31
0.0
  0
LINE
  5
526
330
1F
100
AcDbEntity
  8
0
  6
Continuous
 62
     7
370
    25
100
AcDbLine
 10
167.5000000006
 20
486.5
 30
0.0
 11
217.5000000006
 21
486.5
 31
0.0
  0
LINE
  5
527
330
1F
100
AcDbEntity
  8
0
  6
Continuous
 62
     7
370
    25
100
AcDbLine
 10
217.5000000006
 20
486.5
 30
0.0
 11
217.5000000006
 21
491.5
 31
0.0
  0
LINE
  5
528
330
1F
100
AcDbEntity
  8
0
  6
Continuous
 62
     7
370
    25
100
AcDbLine
 10
217.5000000006
 20
491.5
 30
0.0
 11
167.5000000006
 21
491.5
 31
0.0
  0
LINE
  5
529
330
1F
100
AcDbEntity
  8
0
  6
Continuous
 62
     7
370
    25
100
AcDbLine
 10
84.5000000006
 20
471.5
 30
0.0
 11
84.5000000006
 21
466.5
 31
0.0
  0
LINE
  5
52A
330
1F
100
AcDbEntity
  8
0
  6
Continuous
 62
     7
370
    25
100
AcDbLine
 10
84.5000000006
 20
466.5
 30
0.0
 11
134.5000000006
 21
466.5
 31
0.0
  0
LINE
  5
52B
330
1F
100
AcDbEntity
  8
0
  6
Continuous
 62
     7
370
    25
100
AcDbLine
 10
134.5000000006
 20
466.5
 30
0.0
 11
134.5000000006
 21
471.5
 31
0.0
  0
LINE
  5
52C
330
1F
100
AcDbEntity
  8
0
  6
Continuous
 62
     7
370
    25
100
AcDbLine
 10
134.5000000006
 20
471.5
 30
0.0
 11
84.5000000006
 21
471.5
 31
0.0
  0
LINE
  5
52D
330
1F
100
AcDbEntity
  8
0
  6
Continuous
 62
     7
370
    25
100
AcDbLine
 10
167.5000000006
 20
471.5
 30
0.0
 11
167.5000000006
 21
466.5
 31
0.0
  0
LINE
  5
52E
330
1F
100
AcDbEntity
  8
0
  6
Continuous
 62
     7
370
    25
100
AcDbLine
 10
167.5000000006
 20
466.5
 30
0.0
 11
217.5000000006
 21
466.5
 31
0.0
  0
LINE
  5
52F
330
1F
100
AcDbEntity
  8
0
  6
Continuous
 62
     7
370
    25
100
AcDbLine
 10
217.5000000006
 20
466.5
 30
0.0
 11
217.5000000006
 21
471.5
 31
0.0
  0
LINE
  5
530
330
1F
100
AcDbEntity
  8
0
  6
Continuous
 62
     7
370
    25
100
AcDbLine
 10
217.5000000006
 20
471.5
 30
0.0
 11
167.5000000006
 21
471.5
 31
0.0
  0
LINE
  5
531
330
1F
100
AcDbEntity
  8
0
  6
Continuous
 62
     7
370
    25
100
AcDbLine
 10
250.5000000006
 20
451.5
 30
0.0
 11
250.5000000006
 21
446.5
 31
0.0
  0
LINE
  5
532
330
1F
100
AcDbEntity
  8
0
  6
Continuous
 62
     7
370
    25
100
AcDbLine
 10
250.5000000006
 20
446.5
 30
0.0
 11
300.5000000006
 21
446.5
 31
0.0
  0
LINE
  5
533
330
1F
100
AcDbEntity
  8
0
  6
Continuous
 62
     7
370
    25
100
AcDbLine
 10
300.5000000006
 20
446.5
 30
0.0
 11
300.5000000006
 21
451.5
 31
0.0
  0
LINE
  5
534
330
1F
100
AcDbEntity
  8
0
  6
Continuous
 62
     7
370
    25
100
AcDbLine
 10
300.5000000006
 20
451.5
 30
0.0
 11
250.5000000006
 21
451.5
 31
0.0
  0
LINE
  5
535
330
1F
100
AcDbEntity
  8
0
  6
Continuous
 62
     7
370
    25
100
AcDbLine
 10
167.5000000006
 20
451.5
 30
0.0
 11
167.5000000006
 21
446.5
 31
0.0
  0
LINE
  5
536
330
1F
100
AcDbEntity
  8
0
  6
Continuous
 62
     7
370
    25
100
AcDbLine
 10
167.5000000006
 20
446.5
 30
0.0
 11
217.5000000006
 21
446.5
 31
0.0
  0
LINE
  5
537
330
1F
100
AcDbEntity
  8
0
  6
Continuous
 62
     7
370
    25
100
AcDbLine
 10
217.5000000006
 20
446.5
 30
0.0
 11
217.5000000006
 21
451.5
 31
0.0
  0
LINE
  5
538
330
1F
100
AcDbEntity
  8
0
  6
Continuous
 62
     7
370
    25
100
AcDbLine
 10
217.5000000006
 20
451.5
 30
0.0
 11
167.5000000006
 21
451.5
 31
0.0
  0
LINE
  5
539
330
1F
100
AcDbEntity
  8
0
  6
Continuous
 62
     7
370
    25
100
AcDbLine
 10
84.5000000006
 20
451.5
 30
0.0
 11
84.5000000006
 21
446.5
 31
0.0
  0
LINE
  5
53A
330
1F
100
AcDbEntity
  8
0
  6
Continuous
 62
     7
370
    25
100
AcDbLine
 10
84.5000000006
 20
446.5
 30
0.0
 11
134.5000000006
 21
446.5
 31
0.0
  0
LINE
  5
53B
330
1F
100
AcDbEntity
  8
0
  6
Continuous
 62
     7
370
    25
100
AcDbLine
 10
134.5000000006
 20
446.5
 30
0.0
 11
134.5000000006
 21
451.5
 31
0.0
  0
LINE
  5
53C
330
1F
100
AcDbEntity
  8
0
  6
Continuous
 62
     7
370
    25
100
AcDbLine
 10
134.5000000006
 20
451.5
 30
0.0
 11
84.5000000006
 21
451.5
 31
0.0
  0
LINE
  5
53D
330
1F
100
AcDbEntity
  8
0
  6
Continuous
 62
     7
370
    25
100
AcDbLine
 10
250.5000000006
 20
471.5
 30
0.0
 11
250.5000000006
 21
466.5
 31
0.0
  0
LINE
  5
53E
330
1F
100
AcDbEntity
  8
0
  6
Continuous
 62
     7
370
    25
100
AcDbLine
 10
250.5000000006
 20
466.5
 30
0.0
 11
300.5000000006
 21
466.5
 31
0.0
  0
LINE
  5
53F
330
1F
100
AcDbEntity
  8
0
  6
Continuous
 62
     7
370
    25
100
AcDbLine
 10
300.5000000006
 20
466.5
 30
0.0
 11
300.5000000006
 21
471.5
 31
0.0
  0
LINE
  5
540
330
1F
100
AcDbEntity
  8
0
  6
Continuous
 62
     7
370
    25
100
AcDbLine
 10
300.5000000006
 20
471.5
 30
0.0
 11
250.5000000006
 21
471.5
 31
0.0
  0
LINE
  5
541
330
1F
100
AcDbEntity
  8
0
  6
Continuous
 62
     7
370
    25
100
AcDbLine
 10
-51.4999999994
 20
526.5
 30
0.0
 11
-1.4999999994
 21
526.5
 31
0.0
  0
LINE
  5
542
330
1F
100
AcDbEntity
  8
0
  6
Continuous
 62
     7
370
    25
100
AcDbLine
 10
-1.4999999994
 20
526.5
 30
0.0
 11
-1.4999999994
 21
531.5
 31
0.0
  0
LINE
  5
543
330
1F
100
AcDbEntity
  8
0
  6
Continuous
 62
     7
370
    25
100
AcDbLine
 10
-1.4999999994
 20
531.5
 30
0.0
 11
-51.4999999994
 21
531.5
 31
0.0
  0
LINE
  5
544
330
1F
100
AcDbEntity
  8
0
  6
Continuous
 62
     7
370
    25
100
AcDbLine
 10
-51.4999999994
 20
531.5
 30
0.0
 11
-51.4999999994
 21
526.5
 31
0.0
  0
LINE
  5
545
330
1F
100
AcDbEntity
  8
0
  6
Continuous
 62
     7
370
    25
100
AcDbLine
 10
-51.4999999994
 20
506.5
 30
0.0
 11
-1.4999999994
 21
506.5
 31
0.0
  0
LINE
  5
546
330
1F
100
AcDbEntity
  8
0
  6
Continuous
 62
     7
370
    25
100
AcDbLine
 10
-1.4999999994
 20
506.5
 30
0.0
 11
-1.4999999994
 21
511.5
 31
0.0
  0
LINE
  5
547
330
1F
100
AcDbEntity
  8
0
  6
Continuous
 62
     7
370
    25
100
AcDbLine
 10
-1.4999999994
 20
511.5
 30
0.0
 11
-51.4999999994
 21
511.5
 31
0.0
  0
LINE
  5
548
330
1F
100
AcDbEntity
  8
0
  6
Continuous
 62
     7
370
    25
100
AcDbLine
 10
-51.4999999994
 20
511.5
 30
0.0
 11
-51.4999999994
 21
506.5
 31
0.0
  0
LINE
  5
549
330
1F
100
AcDbEntity
  8
0
  6
Continuous
 62
     7
370
    25
100
AcDbLine
 10
-51.4999999994
 20
486.5
 30
0.0
 11
-1.4999999994
 21
486.5
 31
0.0
  0
LINE
  5
54A
330
1F
100
AcDbEntity
  8
0
  6
Continuous
 62
     7
370
    25
100
AcDbLine
 10
-1.4999999994
 20
486.5
 30
0.0
 11
-1.4999999994
 21
491.5
 31
0.0
  0
LINE
  5
54B
330
1F
100
AcDbEntity
  8
0
  6
Continuous
 62
     7
370
    25
100
AcDbLine
 10
-1.4999999994
 20
491.5
 30
0.0
 11
-51.4999999994
 21
491.5
 31
0.0
  0
LINE
  5
54C
330
1F
100
AcDbEntity
  8
0
  6
Continuous
 62
     7
370
    25
100
AcDbLine
 10
-51.4999999994
 20
491.5
 30
0.0
 11
-51.4999999994
 21
486.5
 31
0.0
  0
LINE
  5
54D
330
1F
100
AcDbEntity
  8
0
  6
Continuous
 62
     7
370
    25
100
AcDbLine
 10
-51.4999999994
 20
466.5
 30
0.0
 11
-1.4999999994
 21
466.5
 31
0.0
  0
LINE
  5
54E
330
1F
100
AcDbEntity
  8
0
  6
Continuous
 62
     7
370
    25
100
AcDbLine
 10
-1.4999999994
 20
466.5
 30
0.0
 11
-1.4999999994
 21
471.5
 31
0.0
  0
LINE
  5
54F
330
1F
100
AcDbEntity
  8
0
  6
Continuous
 62
     7
370
    25
100
AcDbLine
 10
-1.4999999994
 20
471.5
 30
0.0
 11
-51.4999999994
 21
471.5
 31
0.0
  0
LINE
  5
550
330
1F
100
AcDbEntity
  8
0
  6
Continuous
 62
     7
370
    25
100
AcDbLine
 10
-51.4999999994
 20
471.5
 30
0.0
 11
-51.4999999994
 21
466.5
 31
0.0
  0
LINE
  5
551
330
1F
100
AcDbEntity
  8
0
  6
Continuous
 62
     7
370
    25
100
AcDbLine
 10
1.5000000006
 20
431.5
 30
0.0
 11
1.5000000006
 21
426.5
 31
0.0
  0
LINE
  5
552
330
1F
100
AcDbEntity
  8
0
  6
Continuous
 62
     7
370
    25
100
AcDbLine
 10
1.5000000006
 20
426.5
 30
0.0
 11
51.5000000006
 21
426.5
 31
0.0
  0
LINE
  5
553
330
1F
100
AcDbEntity
  8
0
  6
Continuous
 62
     7
370
    25
100
AcDbLine
 10
51.5000000006
 20
426.5
 30
0.0
 11
51.5000000006
 21
431.5
 31
0.0
  0
LINE
  5
554
330
1F
100
AcDbEntity
  8
0
  6
Continuous
 62
     7
370
    25
100
AcDbLine
 10
51.5000000006
 20
431.5
 30
0.0
 11
1.5000000006
 21
431.5
 31
0.0
  0
LINE
  5
555
330
1F
100
AcDbEntity
  8
0
  6
Continuous
 62
     7
370
    25
100
AcDbLine
 10
-51.4999999994
 20
406.5
 30
0.0
 11
-1.4999999994
 21
406.5
 31
0.0
  0
LINE
  5
556
330
1F
100
AcDbEntity
  8
0
  6
Continuous
 62
     7
370
    25
100
AcDbLine
 10
-1.4999999994
 20
406.5
 30
0.0
 11
-1.4999999994
 21
411.5
 31
0.0
  0
LINE
  5
557
330
1F
100
AcDbEntity
  8
0
  6
Continuous
 62
     7
370
    25
100
AcDbLine
 10
-1.4999999994
 20
411.5
 30
0.0
 11
-51.4999999994
 21
411.5
 31
0.0
  0
LINE
  5
558
330
1F
100
AcDbEntity
  8
0
  6
Continuous
 62
     7
370
    25
100
AcDbLine
 10
-51.4999999994
 20
411.5
 30
0.0
 11
-51.4999999994
 21
406.5
 31
0.0
  0
LINE
  5
559
330
1F
100
AcDbEntity
  8
0
  6
Continuous
 62
     7
370
    25
100
AcDbLine
 10
-51.4999999994
 20
426.5
 30
0.0
 11
-1.4999999994
 21
426.5
 31
0.0
  0
LINE
  5
55A
330
1F
100
AcDbEntity
  8
0
  6
Continuous
 62
     7
370
    25
100
AcDbLine
 10
-1.4999999994
 20
426.5
 30
0.0
 11
-1.4999999994
 21
431.5
 31
0.0
  0
LINE
  5
55B
330
1F
100
AcDbEntity
  8
0
  6
Continuous
 62
     7
370
    25
100
AcDbLine
 10
-1.4999999994
 20
431.5
 30
0.0
 11
-51.4999999994
 21
431.5
 31
0.0
  0
LINE
  5
55C
330
1F
100
AcDbEntity
  8
0
  6
Continuous
 62
     7
370
    25
100
AcDbLine
 10
-51.4999999994
 20
431.5
 30
0.0
 11
-51.4999999994
 21
426.5
 31
0.0
  0
LINE
  5
55D
330
1F
100
AcDbEntity
  8
0
  6
Continuous
 62
     7
370
    25
100
AcDbLine
 10
-51.4999999994
 20
446.5
 30
0.0
 11
-1.4999999994
 21
446.5
 31
0.0
  0
LINE
  5
55E
330
1F
100
AcDbEntity
  8
0
  6
Continuous
 62
     7
370
    25
100
AcDbLine
 10
-1.4999999994
 20
446.5
 30
0.0
 11
-1.4999999994
 21
451.5
 31
0.0
  0
LINE
  5
55F
330
1F
100
AcDbEntity
  8
0
  6
Continuous
 62
     7
370
    25
100
AcDbLine
 10
-1.4999999994
 20
451.5
 30
0.0
 11
-51.4999999994
 21
451.5
 31
0.0
  0
LINE
  5
560
330
1F
100
AcDbEntity
  8
0
  6
Continuous
 62
     7
370
    25
100
AcDbLine
 10
-51.4999999994
 20
451.5
 30
0.0
 11
-51.4999999994
 21
446.5
 31
0.0
  0
LINE
  5
561
330
1F
100
AcDbEntity
  8
0
  6
Continuous
 62
     7
370
    25
100
AcDbLine
 10
1.5000000006
 20
451.5
 30
0.0
 11
1.5000000006
 21
446.5
 31
0.0
  0
LINE
  5
562
330
1F
100
AcDbEntity
  8
0
  6
Continuous
 62
     7
370
    25
100
AcDbLine
 10
1.5000000006
 20
446.5
 30
0.0
 11
51.5000000006
 21
446.5
 31
0.0
  0
LINE
  5
563
330
1F
100
AcDbEntity
  8
0
  6
Continuous
 62
     7
370
    25
100
AcDbLine
 10
51.5000000006
 20
446.5
 30
0.0
 11
51.5000000006
 21
451.5
 31
0.0
  0
LINE
  5
564
330
1F
100
AcDbEntity
  8
0
  6
Continuous
 62
     7
370
    25
100
AcDbLine
 10
51.5000000006
 20
451.5
 30
0.0
 11
1.5000000006
 21
451.5
 31
0.0
  0
LINE
  5
565
330
1F
100
AcDbEntity
  8
0
  6
Continuous
 62
     7
370
    25
100
AcDbLine
 10
1.5000000006
 20
471.5
 30
0.0
 11
1.5000000006
 21
466.5
 31
0.0
  0
LINE
  5
566
330
1F
100
AcDbEntity
  8
0
  6
Continuous
 62
     7
370
    25
100
AcDbLine
 10
1.5000000006
 20
466.5
 30
0.0
 11
51.5000000006
 21
466.5
 31
0.0
  0
LINE
  5
567
330
1F
100
AcDbEntity
  8
0
  6
Continuous
 62
     7
370
    25
100
AcDbLine
 10
51.5000000006
 20
466.5
 30
0.0
 11
51.5000000006
 21
471.5
 31
0.0
  0
LINE
  5
568
330
1F
100
AcDbEntity
  8
0
  6
Continuous
 62
     7
370
    25
100
AcDbLine
 10
51.5000000006
 20
471.5
 30
0.0
 11
1.5000000006
 21
471.5
 31
0.0
  0
LINE
  5
569
330
1F
100
AcDbEntity
  8
0
  6
Continuous
 62
     7
370
    25
100
AcDbLine
 10
1.5000000006
 20
491.5
 30
0.0
 11
1.5000000006
 21
486.5
 31
0.0
  0
LINE
  5
56A
330
1F
100
AcDbEntity
  8
0
  6
Continuous
 62
     7
370
    25
100
AcDbLine
 10
1.5000000006
 20
486.5
 30
0.0
 11
51.5000000006
 21
486.5
 31
0.0
  0
LINE
  5
56B
330
1F
100
AcDbEntity
  8
0
  6
Continuous
 62
     7
370
    25
100
AcDbLine
 10
51.5000000006
 20
486.5
 30
0.0
 11
51.5000000006
 21
491.5
 31
0.0
  0
LINE
  5
56C
330
1F
100
AcDbEntity
  8
0
  6
Continuous
 62
     7
370
    25
100
AcDbLine
 10
51.5000000006
 20
491.5
 30
0.0
 11
1.5000000006
 21
491.5
 31
0.0
  0
LINE
  5
56D
330
1F
100
AcDbEntity
  8
0
  6
Continuous
 62
     7
370
    25
100
AcDbLine
 10
1.5000000006
 20
511.5
 30
0.0
 11
1.5000000006
 21
506.5
 31
0.0
  0
LINE
  5
56E
330
1F
100
AcDbEntity
  8
0
  6
Continuous
 62
     7
370
    25
100
AcDbLine
 10
1.5000000006
 20
506.5
 30
0.0
 11
51.5000000006
 21
506.5
 31
0.0
  0
LINE
  5
56F
330
1F
100
AcDbEntity
  8
0
  6
Continuous
 62
     7
370
    25
100
AcDbLine
 10
51.5000000006
 20
506.5
 30
0.0
 11
51.5000000006
 21
511.5
 31
0.0
  0
LINE
  5
570
330
1F
100
AcDbEntity
  8
0
  6
Continuous
 62
     7
370
    25
100
AcDbLine
 10
51.5000000006
 20
511.5
 30
0.0
 11
1.5000000006
 21
511.5
 31
0.0
  0
LINE
  5
571
330
1F
100
AcDbEntity
  8
0
  6
Continuous
 62
     7
370
    25
100
AcDbLine
 10
1.5000000006
 20
531.5
 30
0.0
 11
1.5000000006
 21
526.5
 31
0.0
  0
LINE
  5
572
330
1F
100
AcDbEntity
  8
0
  6
Continuous
 62
     7
370
    25
100
AcDbLine
 10
1.5000000006
 20
526.5
 30
0.0
 11
51.5000000006
 21
526.5
 31
0.0
  0
LINE
  5
573
330
1F
100
AcDbEntity
  8
0
  6
Continuous
 62
     7
370
    25
100
AcDbLine
 10
51.5000000006
 20
526.5
 30
0.0
 11
51.5000000006
 21
531.5
 31
0.0
  0
LINE
  5
574
330
1F
100
AcDbEntity
  8
0
  6
Continuous
 62
     7
370
    25
100
AcDbLine
 10
51.5000000006
 20
531.5
 30
0.0
 11
1.5000000006
 21
531.5
 31
0.0
  0
LINE
  5
575
330
1F
100
AcDbEntity
  8
0
  6
Continuous
 62
     7
370
    25
100
AcDbLine
 10
1.5000000006
 20
551.5
 30
0.0
 11
1.5000000006
 21
546.5
 31
0.0
  0
LINE
  5
576
330
1F
100
AcDbEntity
  8
0
  6
Continuous
 62
     7
370
    25
100
AcDbLine
 10
1.5000000006
 20
546.5
 30
0.0
 11
51.5000000006
 21
546.5
 31
0.0
  0
LINE
  5
577
330
1F
100
AcDbEntity
  8
0
  6
Continuous
 62
     7
370
    25
100
AcDbLine
 10
51.5000000006
 20
546.5
 30
0.0
 11
51.5000000006
 21
551.5
 31
0.0
  0
LINE
  5
578
330
1F
100
AcDbEntity
  8
0
  6
Continuous
 62
     7
370
    25
100
AcDbLine
 10
51.5000000006
 20
551.5
 30
0.0
 11
1.5000000006
 21
551.5
 31
0.0
  0
LINE
  5
579
330
1F
100
AcDbEntity
  8
0
  6
Continuous
 62
     7
370
    25
100
AcDbLine
 10
1.5000000006
 20
571.5
 30
0.0
 11
1.5000000006
 21
566.5
 31
0.0
  0
LINE
  5
57A
330
1F
100
AcDbEntity
  8
0
  6
Continuous
 62
     7
370
    25
100
AcDbLine
 10
1.5000000006
 20
566.5
 30
0.0
 11
51.5000000006
 21
566.5
 31
0.0
  0
LINE
  5
57B
330
1F
100
AcDbEntity
  8
0
  6
Continuous
 62
     7
370
    25
100
AcDbLine
 10
51.5000000006
 20
566.5
 30
0.0
 11
51.5000000006
 21
571.5
 31
0.0
  0
LINE
  5
57C
330
1F
100
AcDbEntity
  8
0
  6
Continuous
 62
     7
370
    25
100
AcDbLine
 10
51.5000000006
 20
571.5
 30
0.0
 11
1.5000000006
 21
571.5
 31
0.0
  0
LINE
  5
57D
330
1F
100
AcDbEntity
  8
0
  6
Continuous
 62
     7
370
    25
100
AcDbLine
 10
1.5000000006
 20
591.5
 30
0.0
 11
1.5000000006
 21
586.5
 31
0.0
  0
LINE
  5
57E
330
1F
100
AcDbEntity
  8
0
  6
Continuous
 62
     7
370
    25
100
AcDbLine
 10
1.5000000006
 20
586.5
 30
0.0
 11
51.5000000006
 21
586.5
 31
0.0
  0
LINE
  5
57F
330
1F
100
AcDbEntity
  8
0
  6
Continuous
 62
     7
370
    25
100
AcDbLine
 10
51.5000000006
 20
586.5
 30
0.0
 11
51.5000000006
 21
591.5
 31
0.0
  0
LINE
  5
580
330
1F
100
AcDbEntity
  8
0
  6
Continuous
 62
     7
370
    25
100
AcDbLine
 10
51.5000000006
 20
591.5
 30
0.0
 11
1.5000000006
 21
591.5
 31
0.0
  0
ARC
  5
581
330
1F
100
AcDbEntity
  8
0
  6
Continuous
 62
     7
370
    25
100
AcDbCircle
 10
-355.8662213022
 20
-726.0
 30
0.0
 40
2.500000000000032
100
AcDbArc
 50
152.6701223183
 51
270.0
  0
ARC
  5
582
330
1F
100
AcDbEntity
  8
0
  6
Continuous
 62
     7
370
    25
100
AcDbCircle
 10
355.8662213034
 20
-726.0
 30
0.0
 40
2.5
100
AcDbArc
 50
270.0
 51
27.3298776817
  0
ENDSEC
  0
SECTION
  2
OBJECTS
  0
DICTIONARY
  5
C
330
0
100
AcDbDictionary
281
     1
  3
ACAD_GROUP
350
D
  3
ACAD_LAYOUT
350
1A
  3
ACAD_MLINESTYLE
350
17
  3
ACAD_PLOTSETTINGS
350
19
  3
ACAD_PLOTSTYLENAME
350
E
  3
ACAD_SCALELIST
350
47
  0
DICTIONARY
  5
D
102
{ACAD_REACTORS
330
C
102
}
330
C
100
AcDbDictionary
281
     1
  0
DICTIONARY
  5
1A
102
{ACAD_REACTORS
330
C
102
}
330
C
100
AcDbDictionary
281
     1
  3
Layout1
350
1E
  3
Layout2
350
26
  3
Model
350
22
  0
DICTIONARY
  5
17
102
{ACAD_REACTORS
330
C
102
}
330
C
100
AcDbDictionary
281
     1
  3
Standard
350
18
  0
DICTIONARY
  5
19
102
{ACAD_REACTORS
330
C
102
}
330
C
100
AcDbDictionary
281
     1
  0
ACDBDICTIONARYWDFLT
  5
E
102
{ACAD_REACTORS
330
C
102
}
330
C
100
AcDbDictionary
281
     1
  3
Normal
350
F
100
AcDbDictionaryWithDefault
340
F
  0
DICTIONARY
  5
47
102
{ACAD_REACTORS
330
C
102
}
330
C
100
AcDbDictionary
281
     1
  3
A0
350
48
  3
A1
350
49
  3
A2
350
4A
  3
A3
350
4B
  3
A4
350
4C
  3
A5
350
4D
  3
A6
350
4E
  3
A7
350
4F
  3
A8
350
50
  3
A9
350
51
  3
B0
350
52
  3
B1
350
53
  3
B2
350
54
  3
B3
350
55
  3
B4
350
56
  3
B5
350
57
  3
B6
350
58
  3
B7
350
59
  3
B8
350
5A
  3
B9
350
5B
  3
C0
350
5C
  3
C1
350
5D
  3
C2
350
5E
  3
C3
350
5F
  3
C4
350
60
  3
C5
350
61
  3
C6
350
62
  3
C7
350
63
  3
C8
350
64
  3
C9
350
65
  3
D0
350
66
  3
D1
350
67
  3
D2
350
68
  0
LAYOUT
  5
1E
102
{ACAD_REACTORS
330
1A
102
}
330
1A
100
AcDbPlotSettings
  1

  2
none_device
  4

  6

 40
0.0
 41
0.0
 42
0.0
 43
0.0
 44
0.0
 45
0.0
 46
0.0
 47
0.0
 48
0.0
 49
0.0
140
0.0
141
0.0
142
1.0
143
1.0
 70
   688
 72
     1
 73
     0
 74
     5
  7

 75
    16
147
1.0
148
0.0
149
0.0
100
AcDbLayout
  1
Layout1
 70
     1
 71
     1
 10
0.0
 20
0.0
 11
420.0
 21
297.0
 12
0.0
 22
0.0
 32
0.0
 14
1.0000000000E+20
 24
1.0000000000E+20
 34
1.0000000000E+20
 15
-1.0000000000E+20
 25
-1.0000000000E+20
 35
-1.0000000000E+20
146
0.0
 13
0.0
 23
0.0
 33
0.0
 16
1.0
 26
0.0
 36
0.0
 17
0.0
 27
1.0
 37
0.0
 76
     0
330
1B
  0
LAYOUT
  5
26
102
{ACAD_REACTORS
330
1A
102
}
330
1A
100
AcDbPlotSettings
  1

  2
none_device
  4

  6

 40
0.0
 41
0.0
 42
0.0
 43
0.0
 44
0.0
 45
0.0
 46
0.0
 47
0.0
 48
0.0
 49
0.0
140
0.0
141
0.0
142
1.0
143
1.0
 70
   688
 72
     1
 73
     0
 74
     5
  7

 75
    16
147
1.0
148
0.0
149
0.0
100
AcDbLayout
  1
Layout2
 70
     1
 71
     2
 10
0.0
 20
0.0
 11
0.0
 21
0.0
 12
0.0
 22
0.0
 32
0.0
 14
0.0
 24
0.0
 34
0.0
 15
0.0
 25
0.0
 35
0.0
146
0.0
 13
0.0
 23
0.0
 33
0.0
 16
1.0
 26
0.0
 36
0.0
 17
0.0
 27
1.0
 37
0.0
 76
     0
330
23
  0
LAYOUT
  5
22
102
{ACAD_REACTORS
330
1A
102
}
330
1A
100
AcDbPlotSettings
  1

  2
none_device
  4
ANSI_A_(11.00_x_8.50_Inches)
  6

 40
6.35
 41
19.05
 42
6.35000508
 43
19.05000254
 44
279.4
 45
215.9
 46
133.34999746
 47
88.89999873
 48
0.0
 49
0.0
140
0.0
141
0.0
142
0.0057755662
143
1.0
 70
  1696
 72
     0
 73
     0
 74
     0
  7

 75
     0
147
0.0179189148
148
-1300.4909072572
149
0.0
100
AcDbLayout
  1
Model
 70
     1
 71
     0
 10
0.0
 20
0.0
 11
420.0
 21
297.0
 12
0.0
 22
0.0
 32
0.0
 14
-360.0000000009
 24
-728.5
 34
0.0
 15
360.0000000009
 25
728.5
 35
0.0
146
0.0
 13
0.0
 23
0.0
 33
0.0
 16
1.0
 26
0.0
 36
0.0
 17
0.0
 27
1.0
 37
0.0
 76
     0
330
1F
331
29
  0
MLINESTYLE
  5
18
102
{ACAD_REACTORS
330
17
102
}
330
17
100
AcDbMlineStyle
  2
Standard
 70
     0
  3

 62
   256
 51
90.0
 52
90.0
 71
     2
 49
0.5
 62
   256
  6
BYLAYER
 49
-0.5
 62
   256
  6
BYLAYER
  0
ACDBPLACEHOLDER
  5
F
102
{ACAD_REACTORS
330
E
102
}
330
E
  0
SCALE
  5
48
102
{ACAD_REACTORS
330
47
102
}
330
47
100
AcDbScale
 70
     0
300
1:1
140
1.0
141
1.0
290
     1
  0
SCALE
  5
49
102
{ACAD_REACTORS
330
47
102
}
330
47
100
AcDbScale
 70
     0
300
1:2
140
1.0
141
2.0
290
     0
  0
SCALE
  5
4A
102
{ACAD_REACTORS
330
47
102
}
330
47
100
AcDbScale
 70
     0
300
1:4
140
1.0
141
4.0
290
     0
  0
SCALE
  5
4B
102
{ACAD_REACTORS
330
47
102
}
330
47
100
AcDbScale
 70
     0
300
1:5
140
1.0
141
5.0
290
     0
  0
SCALE
  5
4C
102
{ACAD_REACTORS
330
47
102
}
330
47
100
AcDbScale
 70
     0
300
1:8
140
1.0
141
8.0
290
     0
  0
SCALE
  5
4D
102
{ACAD_REACTORS
330
47
102
}
330
47
100
AcDbScale
 70
     0
300
1:10
140
1.0
141
10.0
290
     0
  0
SCALE
  5
4E
102
{ACAD_REACTORS
330
47
102
}
330
47
100
AcDbScale
 70
     0
300
1:16
140
1.0
141
16.0
290
     0
  0
SCALE
  5
4F
102
{ACAD_REACTORS
330
47
102
}
330
47
100
AcDbScale
 70
     0
300
1:20
140
1.0
141
20.0
290
     0
  0
SCALE
  5
50
102
{ACAD_REACTORS
330
47
102
}
330
47
100
AcDbScale
 70
     0
300
1:30
140
1.0
141
30.0
290
     0
  0
SCALE
  5
51
102
{ACAD_REACTORS
330
47
102
}
330
47
100
AcDbScale
 70
     0
300
1:40
140
1.0
141
40.0
290
     0
  0
SCALE
  5
52
102
{ACAD_REACTORS
330
47
102
}
330
47
100
AcDbScale
 70
     0
300
1:50
140
1.0
141
50.0
290
     0
  0
SCALE
  5
53
102
{ACAD_REACTORS
330
47
102
}
330
47
100
AcDbScale
 70
     0
300
1:100
140
1.0
141
100.0
290
     0
  0
SCALE
  5
54
102
{ACAD_REACTORS
330
47
102
}
330
47
100
AcDbScale
 70
     0
300
2:1
140
2.0
141
1.0
290
     0
  0
SCALE
  5
55
102
{ACAD_REACTORS
330
47
102
}
330
47
100
AcDbScale
 70
     0
300
4:1
140
4.0
141
1.0
290
     0
  0
SCALE
  5
56
102
{ACAD_REACTORS
330
47
102
}
330
47
100
AcDbScale
 70
     0
300
8:1
140
8.0
141
1.0
290
     0
  0
SCALE
  5
57
102
{ACAD_REACTORS
330
47
102
}
330
47
100
AcDbScale
 70
     0
300
10:1
140
10.0
141
1.0
290
     0
  0
SCALE
  5
58
102
{ACAD_REACTORS
330
47
102
}
330
47
100
AcDbScale
 70
     0
300
100:1
140
100.0
141
1.0
290
     0
  0
SCALE
  5
59
102
{ACAD_REACTORS
330
47
102
}
330
47
100
AcDbScale
 70
     0
300
1/128" = 1'-0"
140
0.0078125
141
12.0
290
     0
  0
SCALE
  5
5A
102
{ACAD_REACTORS
330
47
102
}
330
47
100
AcDbScale
 70
     0
300
1/64" = 1'-0"
140
0.015625
141
12.0
290
     0
  0
SCALE
  5
5B
102
{ACAD_REACTORS
330
47
102
}
330
47
100
AcDbScale
 70
     0
300
1/32" = 1'-0"
140
0.03125
141
12.0
290
     0
  0
SCALE
  5
5C
102
{ACAD_REACTORS
330
47
102
}
330
47
100
AcDbScale
 70
     0
300
1/16" = 1'-0"
140
0.0625
141
12.0
290
     0
  0
SCALE
  5
5D
102
{ACAD_REACTORS
330
47
102
}
330
47
100
AcDbScale
 70
     0
300
3/32" = 1'-0"
140
0.09375
141
12.0
290
     0
  0
SCALE
  5
5E
102
{ACAD_REACTORS
330
47
102
}
330
47
100
AcDbScale
 70
     0
300
1/8" = 1'-0"
140
0.125
141
12.0
290
     0
  0
SCALE
  5
5F
102
{ACAD_REACTORS
330
47
102
}
330
47
100
AcDbScale
 70
     0
300
3/16" = 1'-0"
140
0.1875
141
12.0
290
     0
  0
SCALE
  5
60
102
{ACAD_REACTORS
330
47
102
}
330
47
100
AcDbScale
 70
     0
300
1/4" = 1'-0"
140
0.25
141
12.0
290
     0
  0
SCALE
  5
61
102
{ACAD_REACTORS
330
47
102
}
330
47
100
AcDbScale
 70
     0
300
3/8" = 1'-0"
140
0.375
141
12.0
290
     0
  0
SCALE
  5
62
102
{ACAD_REACTORS
330
47
102
}
330
47
100
AcDbScale
 70
     0
300
1/2" = 1'-0"
140
0.5
141
12.0
290
     0
  0
SCALE
  5
63
102
{ACAD_REACTORS
330
47
102
}
330
47
100
AcDbScale
 70
     0
300
3/4" = 1'-0"
140
0.75
141
12.0
290
     0
  0
SCALE
  5
64
102
{ACAD_REACTORS
330
47
102
}
330
47
100
AcDbScale
 70
     0
300
1" = 1'-0"
140
1.0
141
12.0
290
     0
  0
SCALE
  5
65
102
{ACAD_REACTORS
330
47
102
}
330
47
100
AcDbScale
 70
     0
300
1-1/2" = 1'-0"
140
1.5
141
12.0
290
     0
  0
SCALE
  5
66
102
{ACAD_REACTORS
330
47
102
}
330
47
100
AcDbScale
 70
     0
300
3" = 1'-0"
140
3.0
141
12.0
290
     0
  0
SCALE
  5
67
102
{ACAD_REACTORS
330
47
102
}
330
47
100
AcDbScale
 70
     0
300
6" = 1'-0"
140
6.0
141
12.0
290
     0
  0
SCALE
  5
68
102
{ACAD_REACTORS
330
47
102
}
330
47
100
AcDbScale
 70
     0
300
1'-0" = 1'-0"
140
12.0
141
12.0
290
     0
  0
ENDSEC
  0
EOF
